  0
SECTION
  2
HEADER
  9
$ACADVER
  1
AC1015
  9
$ACADMAINTVER
 70
    20
  9
$DWGCODEPAGE
  3
ANSI_932
  9
$INSBASE
 10
0.0
 20
0.0
 30
0.0
  9
$EXTMIN
 10
-322.6365276390676
 20
-133.5
 30
0.0
  9
$EXTMAX
 10
195.0953083914834
 20
132.6000061035156
 30
0.0
  9
$LIMMIN
 10
-210.0
 20
-148.5
  9
$LIMMAX
 10
210.0
 20
148.5
  9
$ORTHOMODE
 70
     0
  9
$REGENMODE
 70
     1
  9
$FILLMODE
 70
     1
  9
$QTEXTMODE
 70
     0
  9
$MIRRTEXT
 70
     1
  9
$LTSCALE
 40
1.0
  9
$ATTMODE
 70
     1
  9
$TEXTSIZE
 40
3.200000047683714
  9
$TRACEWID
 40
0.05
  9
$TEXTSTYLE
  7
MX_NOTE_STANDARD
  9
$CLAYER
  8
0
  9
$CELTYPE
  6
CONTINUOUS
  9
$CECOLOR
 62
   256
  9
$CELTSCALE
 40
1.0
  9
$DISPSILH
 70
     0
  9
$DIMSCALE
 40
1.0
  9
$DIMASZ
 40
2.5
  9
$DIMEXO
 40
1.5
  9
$DIMDLI
 40
3.75
  9
$DIMRND
 40
0.0
  9
$DIMDLE
 40
0.0
  9
$DIMEXE
 40
1.5
  9
$DIMTP
 40
0.0
  9
$DIMTM
 40
0.0
  9
$DIMTXT
 40
3.200000047683714
  9
$DIMCEN
 40
2.5
  9
$DIMTSZ
 40
0.0
  9
$DIMTOL
 70
     0
  9
$DIMLIM
 70
     0
  9
$DIMTIH
 70
     0
  9
$DIMTOH
 70
     0
  9
$DIMSE1
 70
     0
  9
$DIMSE2
 70
     0
  9
$DIMTAD
 70
     1
  9
$DIMZIN
 70
     8
  9
$DIMBLK
  1

  9
$DIMASO
 70
     1
  9
$DIMSHO
 70
     1
  9
$DIMPOST
  1

  9
$DIMAPOST
  1

  9
$DIMALT
 70
     0
  9
$DIMALTD
 70
     4
  9
$DIMALTF
 40
0.03937007874016
  9
$DIMLFAC
 40
1.0
  9
$DIMTOFL
 70
     1
  9
$DIMTVP
 40
0.0
  9
$DIMTIX
 70
     0
  9
$DIMSOXD
 70
     0
  9
$DIMSAH
 70
     1
  9
$DIMBLK1
  1
OPEN30
  9
$DIMBLK2
  1
OPEN30
  9
$DIMSTYLE
  2
MXDIMSTYLE
  9
$DIMCLRD
 70
     0
  9
$DIMCLRE
 70
     0
  9
$DIMCLRT
 70
     0
  9
$DIMTFAC
 40
1.0
  9
$DIMGAP
 40
1.0
  9
$DIMJUST
 70
     0
  9
$DIMSD1
 70
     0
  9
$DIMSD2
 70
     0
  9
$DIMTOLJ
 70
     0
  9
$DIMTZIN
 70
     0
  9
$DIMALTZ
 70
     0
  9
$DIMALTTZ
 70
     0
  9
$DIMUPT
 70
     1
  9
$DIMDEC
 70
     2
  9
$DIMTDEC
 70
     2
  9
$DIMALTU
 70
     2
  9
$DIMALTTD
 70
     4
  9
$DIMTXSTY
  7
MX_NOTE_STANDARD
  9
$DIMAUNIT
 70
     0
  9
$DIMADEC
 70
     0
  9
$DIMALTRND
 40
0.0
  9
$DIMAZIN
 70
     0
  9
$DIMDSEP
 70
    46
  9
$DIMATFIT
 70
     3
  9
$DIMFRAC
 70
     0
  9
$DIMLDRBLK
  1
OPEN30
  9
$DIMLUNIT
 70
     2
  9
$DIMLWD
 70
    -2
  9
$DIMLWE
 70
    -2
  9
$DIMTMOVE
 70
     0
  9
$LUNITS
 70
     2
  9
$LUPREC
 70
     4
  9
$SKETCHINC
 40
0.1
  9
$FILLETRAD
 40
0.0
  9
$AUNITS
 70
     0
  9
$AUPREC
 70
     0
  9
$MENU
  1
acad
  9
$ELEVATION
 40
0.0
  9
$PELEVATION
 40
0.0
  9
$THICKNESS
 40
0.0
  9
$LIMCHECK
 70
     0
  9
$CHAMFERA
 40
0.0
  9
$CHAMFERB
 40
0.0
  9
$CHAMFERC
 40
0.0
  9
$CHAMFERD
 40
0.0
  9
$SKPOLY
 70
     0
  9
$TDCREATE
 40
2453984.744699074
  9
$TDUCREATE
 40
2453984.369699074
  9
$TDUPDATE
 40
2454495.713021597
  9
$TDUUPDATE
 40
2454495.338021597
  9
$TDINDWG
 40
0.0168153009
  9
$TDUSRTIMER
 40
0.0168153009
  9
$USRTIMER
 70
     1
  9
$ANGBASE
 50
0.0
  9
$ANGDIR
 70
     0
  9
$PDMODE
 70
     0
  9
$PDSIZE
 40
0.0
  9
$PLINEWID
 40
0.0
  9
$SPLFRAME
 70
     0
  9
$SPLINETYPE
 70
     6
  9
$SPLINESEGS
 70
     8
  9
$HANDSEED
  5
58A
  9
$SURFTAB1
 70
     6
  9
$SURFTAB2
 70
     6
  9
$SURFTYPE
 70
     6
  9
$SURFU
 70
     6
  9
$SURFV
 70
     6
  9
$UCSBASE
  2

  9
$UCSNAME
  2

  9
$UCSORG
 10
0.0
 20
0.0
 30
0.0
  9
$UCSXDIR
 10
1.0
 20
0.0
 30
0.0
  9
$UCSYDIR
 10
0.0
 20
1.0
 30
0.0
  9
$UCSORTHOREF
  2

  9
$UCSORTHOVIEW
 70
     0
  9
$UCSORGTOP
 10
0.0
 20
0.0
 30
0.0
  9
$UCSORGBOTTOM
 10
0.0
 20
0.0
 30
0.0
  9
$UCSORGLEFT
 10
0.0
 20
0.0
 30
0.0
  9
$UCSORGRIGHT
 10
0.0
 20
0.0
 30
0.0
  9
$UCSORGFRONT
 10
0.0
 20
0.0
 30
0.0
  9
$UCSORGBACK
 10
0.0
 20
0.0
 30
0.0
  9
$PUCSBASE
  2

  9
$PUCSNAME
  2

  9
$PUCSORG
 10
0.0
 20
0.0
 30
0.0
  9
$PUCSXDIR
 10
1.0
 20
0.0
 30
0.0
  9
$PUCSYDIR
 10
0.0
 20
1.0
 30
0.0
  9
$PUCSORTHOREF
  2

  9
$PUCSORTHOVIEW
 70
     0
  9
$PUCSORGTOP
 10
0.0
 20
0.0
 30
0.0
  9
$PUCSORGBOTTOM
 10
0.0
 20
0.0
 30
0.0
  9
$PUCSORGLEFT
 10
0.0
 20
0.0
 30
0.0
  9
$PUCSORGRIGHT
 10
0.0
 20
0.0
 30
0.0
  9
$PUCSORGFRONT
 10
0.0
 20
0.0
 30
0.0
  9
$PUCSORGBACK
 10
0.0
 20
0.0
 30
0.0
  9
$USERI1
 70
     0
  9
$USERI2
 70
     0
  9
$USERI3
 70
     0
  9
$USERI4
 70
     0
  9
$USERI5
 70
     0
  9
$USERR1
 40
0.0
  9
$USERR2
 40
0.0
  9
$USERR3
 40
0.0
  9
$USERR4
 40
0.0
  9
$USERR5
 40
0.0
  9
$WORLDVIEW
 70
     1
  9
$SHADEDGE
 70
     3
  9
$SHADEDIF
 70
    70
  9
$TILEMODE
 70
     1
  9
$MAXACTVP
 70
    16
  9
$PINSBASE
 10
0.0
 20
0.0
 30
0.0
  9
$PLIMCHECK
 70
     0
  9
$PEXTMIN
 10
1.000000000000000E+20
 20
1.000000000000000E+20
 30
1.000000000000000E+20
  9
$PEXTMAX
 10
-1.000000000000000E+20
 20
-1.000000000000000E+20
 30
-1.000000000000000E+20
  9
$PLIMMIN
 10
0.0
 20
0.0
  9
$PLIMMAX
 10
12.0
 20
9.0
  9
$UNITMODE
 70
     0
  9
$VISRETAIN
 70
     0
  9
$PLINEGEN
 70
     1
  9
$PSLTSCALE
 70
     0
  9
$TREEDEPTH
 70
  3020
  9
$CMLSTYLE
  2
STANDARD
  9
$CMLJUST
 70
     0
  9
$CMLSCALE
 40
1.0
  9
$PROXYGRAPHICS
 70
     1
  9
$MEASUREMENT
 70
     0
  9
$CELWEIGHT
370
    -1
  9
$ENDCAPS
280
     0
  9
$JOINSTYLE
280
     0
  9
$LWDISPLAY
290
     0
  9
$INSUNITS
 70
     0
  9
$HYPERLINKBASE
  1

  9
$STYLESHEET
  1

  9
$XEDIT
290
     1
  9
$CEPSNTYPE
380
     0
  9
$PSTYLEMODE
290
     1
  9
$FINGERPRINTGUID
  2
{3D4128B0-DC35-41D3-937B-0BD89DE58B80}
  9
$VERSIONGUID
  2
{9A641BE8-CE72-4C89-B300-519E0A7816B4}
  9
$EXTNAMES
290
     1
  9
$PSVPSCALE
 40
0.0
  9
$OLESTARTUP
290
     0
  0
ENDSEC
  0
SECTION
  2
CLASSES
  0
CLASS
  1
IMAGE
  2
AcDbRasterImage
  3
ISM
 90
    32895
280
     0
281
     1
  0
CLASS
  1
DICTIONARYVAR
  2
AcDbDictionaryVar
  3
ObjectDBX Classes
 90
        0
280
     0
281
     0
  0
CLASS
  1
RASTERVARIABLES
  2
AcDbRasterVariables
  3
ISM
 90
    32768
280
     0
281
     0
  0
CLASS
  1
IMAGEDEF
  2
AcDbRasterImageDef
  3
ISM
 90
    32768
280
     0
281
     0
  0
CLASS
  1
IMAGEDEF_REACTOR
  2
AcDbRasterImageDefReactor
  3
ISM
 90
    32769
280
     0
281
     0
  0
CLASS
  1
IDBUFFER
  2
AcDbIdBuffer
  3
ObjectDBX Classes
 90
    32768
280
     0
281
     0
  0
CLASS
  1
SPATIAL_FILTER
  2
AcDbSpatialFilter
  3
ObjectDBX Classes
 90
    32768
280
     0
281
     0
  0
CLASS
  1
SORTENTSTABLE
  2
AcDbSortentsTable
  3
ObjectDBX Classes
 90
        0
280
     0
281
     0
  0
CLASS
  1
LAYER_INDEX
  2
AcDbLayerIndex
  3
ObjectDBX Classes
 90
    32768
280
     0
281
     0
  0
CLASS
  1
SPATIAL_INDEX
  2
AcDbSpatialIndex
  3
ObjectDBX Classes
 90
    32768
280
     0
281
     0
  0
CLASS
  1
OBJECT_PTR
  2
CAseDLPNTableRecord
  3
"ASE-LPNTableRecord"
 90
    32769
280
     0
281
     0
  0
CLASS
  1
LAYOUT
  2
AcDbLayout
  3
ObjectDBX Classes
 90
        0
280
     0
281
     0
  0
CLASS
  1
PLOTSETTINGS
  2
AcDbPlotSettings
  3
ObjectDBX Classes
 90
    32768
280
     0
281
     0
  0
CLASS
  1
ACDBDICTIONARYWDFLT
  2
AcDbDictionaryWithDefault
  3
ObjectDBX Classes
 90
        0
280
     0
281
     0
  0
CLASS
  1
ACDBPLACEHOLDER
  2
AcDbPlaceHolder
  3
ObjectDBX Classes
 90
        0
280
     0
281
     0
  0
CLASS
  1
TABLESTYLE
  2
AcDbTableStyle
  3
ObjectDBX Classes
 90
     2047
280
     0
281
     0
  0
ENDSEC
  0
SECTION
  2
TABLES
  0
TABLE
  2
VPORT
  5
7
330
0
100
AcDbSymbolTable
 70
     5
  0
VPORT
  5
583
330
7
100
AcDbSymbolTableRecord
100
AcDbViewportTableRecord
  2
*Active
 70
     0
 10
0.0
 20
0.0
 11
1.0
 21
1.0
 12
23.64718818616723
 22
23.98905546223907
 13
0.0
 23
0.0
 14
1.0
 24
1.0
 15
0.0
 25
0.0
 16
0.0
 26
0.0
 36
1.0
 17
0.0
 27
0.0
 37
0.0
 40
342.4717838986855
 41
1.540229885057471
 42
50.0
 43
0.0
 44
0.0
 50
0.0
 51
0.0
 71
     0
 72
   100
 73
     1
 74
     1
 75
     0
 76
     0
 77
     0
 78
     0
281
     0
 65
     1
110
0.0
120
0.0
130
0.0
111
1.0
121
0.0
131
0.0
112
0.0
122
1.0
132
0.0
 79
     0
146
0.0
  0
ENDTAB
  0
TABLE
  2
LTYPE
  5
4
330
0
100
AcDbSymbolTable
 70
     2
  0
LTYPE
  5
11
330
4
100
AcDbSymbolTableRecord
100
AcDbLinetypeTableRecord
  2
BYBLOCK
 70
     0
  3

 72
    65
 73
     0
 40
0.0
  0
LTYPE
  5
12
330
4
100
AcDbSymbolTableRecord
100
AcDbLinetypeTableRecord
  2
BYLAYER
 70
     0
  3

 72
    65
 73
     0
 40
0.0
  0
LTYPE
  5
13
330
4
100
AcDbSymbolTableRecord
100
AcDbLinetypeTableRecord
  2
CONTINUOUS
 70
     0
  3
Solid line
 72
    65
 73
     0
 40
0.0
  0
LTYPE
  5
C1
330
4
100
AcDbSymbolTableRecord
100
AcDbLinetypeTableRecord
  2
DASHED
 70
     0
  3
Dashed __ __ __ __ __ __ __ __ __ __ __ __ __ _
 72
    65
 73
     2
 40
19.05
 49
12.7
 74
     0
 49
-6.349999999999997
 74
     0
  0
ENDTAB
  0
TABLE
  2
LAYER
  5
2
330
0
100
AcDbSymbolTable
 70
     2
  0
LAYER
  5
14
330
2
100
AcDbSymbolTableRecord
100
AcDbLayerTableRecord
  2
0
 70
     0
 62
     7
  6
CONTINUOUS
370
    -3
390
169
  0
ENDTAB
  0
TABLE
  2
STYLE
  5
3
330
0
100
AcDbSymbolTable
 70
     2
  0
STYLE
  5
17
330
3
100
AcDbSymbolTableRecord
100
AcDbTextStyleTableRecord
  2
MX_NOTE_STANDARD
 70
     0
 40
0.0
 41
1.0
 50
0.0
 71
     0
 42
3.200000047683714
  3
txt.shx
  4
extfont.shx
  0
ENDTAB
  0
TABLE
  2
VIEW
  5
5
330
0
100
AcDbSymbolTable
 70
     0
  0
ENDTAB
  0
TABLE
  2
UCS
  5
6
330
0
100
AcDbSymbolTable
 70
     0
  0
ENDTAB
  0
TABLE
  2
APPID
  5
8
330
0
100
AcDbSymbolTable
 70
     2
  0
APPID
  5
16
330
8
100
AcDbSymbolTableRecord
100
AcDbRegAppTableRecord
  2
ACAD
 70
     0
  0
APPID
  5
277
330
8
100
AcDbSymbolTableRecord
100
AcDbRegAppTableRecord
  2
ACAD_EXEMPT_FROM_CAD_STANDARDS
 70
     0
  0
ENDTAB
  0
TABLE
  2
DIMSTYLE
  5
9
330
0
100
AcDbSymbolTable
 70
     1
100
AcDbDimStyleTable
 71
     1
340
18
  0
DIMSTYLE
105
18
330
9
100
AcDbSymbolTableRecord
100
AcDbDimStyleTableRecord
  2
MXDIMSTYLE
 70
     0
 41
2.5
 42
1.5
 43
3.75
 44
1.5
 73
     0
 74
     0
 77
     1
 78
     8
140
3.200000047683714
141
2.5
143
0.03937007874016
147
1.0
171
     4
172
     1
173
     1
271
     2
272
     2
274
     4
283
     0
288
     1
340
17
341
21
343
21
344
21
  0
ENDTAB
  0
TABLE
  2
BLOCK_RECORD
  5
1
330
0
100
AcDbSymbolTable
 70
     6
  0
BLOCK_RECORD
  5
A
102
{ACAD_XDICTIONARY
360
218
102
}
330
1
100
AcDbSymbolTableRecord
100
AcDbBlockTableRecord
  2
*MODEL_SPACE
340
170
  0
BLOCK_RECORD
  5
B
330
1
100
AcDbSymbolTableRecord
100
AcDbBlockTableRecord
  2
*PAPER_SPACE
340
171
  0
BLOCK_RECORD
  5
1E
330
1
100
AcDbSymbolTableRecord
100
AcDbBlockTableRecord
  2
MS_1
340
0
310
2800000020000000200000000100080000000000000400000000000000000000000000000000000000000000000080000080000000808000800000008000800080800000C0C0C000C0DCC000F0CAA6000020400000206000002080000020A0000020C0000020E00000400000004020000040400000406000004080000040A0
310
000040C0000040E00000600000006020000060400000606000006080000060A0000060C0000060E00000800000008020000080400000806000008080000080A0000080C0000080E00000A0000000A0200000A0400000A0600000A0800000A0A00000A0C00000A0E00000C0000000C0200000C0400000C0600000C0800000C0
310
A00000C0C00000C0E00000E0000000E0200000E0400000E0600000E0800000E0A00000E0C00000E0E00040000000400020004000400040006000400080004000A0004000C0004000E00040200000402020004020400040206000402080004020A0004020C0004020E000404000004040200040404000404060004040800040
310
40A0004040C0004040E00040600000406020004060400040606000406080004060A0004060C0004060E00040800000408020004080400040806000408080004080A0004080C0004080E00040A0000040A0200040A0400040A0600040A0800040A0A00040A0C00040A0E00040C0000040C0200040C0400040C0600040C08000
310
40C0A00040C0C00040C0E00040E0000040E0200040E0400040E0600040E0800040E0A00040E0C00040E0E00080000000800020008000400080006000800080008000A0008000C0008000E00080200000802020008020400080206000802080008020A0008020C0008020E00080400000804020008040400080406000804080
310
008040A0008040C0008040E00080600000806020008060400080606000806080008060A0008060C0008060E00080800000808020008080400080806000808080008080A0008080C0008080E00080A0000080A0200080A0400080A0600080A0800080A0A00080A0C00080A0E00080C0000080C0200080C0400080C0600080C0
310
800080C0A00080C0C00080C0E00080E0000080E0200080E0400080E0600080E0800080E0A00080E0C00080E0E000C0000000C0002000C0004000C0006000C0008000C000A000C000C000C000E000C0200000C0202000C0204000C0206000C0208000C020A000C020C000C020E000C0400000C0402000C0404000C0406000C0
310
408000C040A000C040C000C040E000C0600000C0602000C0604000C0606000C0608000C060A000C060C000C060E000C0800000C0802000C0804000C0806000C0808000C080A000C080C000C080E000C0A00000C0A02000C0A04000C0A06000C0A08000C0A0A000C0A0C000C0A0E000C0C00000C0C02000C0C04000C0C06000
310
C0C08000C0C0A000F0FBFF00A4A0A000808080000000FF0000FF000000FFFF00FF000000FF00FF00FFFF0000FFFFFF00FFFFFFFFFFFFFFFFFFFFFFFFFFFFFFFFFFFFFFFFFFFFFFFFFFFFFFFFFFFFFFFFFFFFFFFFFFFFFFFFFFFFFFFFFFFFFF0000FFFFFFFFFFFFFFFFFFFFFFFFFFFFFFFFFFFFFFFFFFFFFFFFFFFFFFFFFFFF
310
0000FFFFFFFFFFFFFFFFFFFFFFFFFFFFFFFFFFFFFFFFFFFFFFFFFFFFFFFFFFFF0000FFFFFFFFFFFFFFFFFFFFFFFFFFFFFFFFFFFFFFFFFFFFFFFFFFFFFFFFFFFF0000FFFFFFFFFFFFFFFFFFFFFFFFFFFFFFFFFFFFFFFFFFFFFFFFFFFFFFFFFFFF0000FFFFFFFFFFFFFFFFFFFFFFFFFFFFFFFFFFFFFFFFFFFFFFFFFFFFFFFFFF
310
FF0000FFFFFFFFFFFFFFFFFFFFFFFFFFFFFFFFFFFFFFFFFFFFFFFFFFFFFFFFFFFF0000FFFFFFFFFFFFFFFFFFFFFFFFFFFFFFFFFFFFFFFFFFFFFFFFFFFFFFFFFFFF0000FFFFFFFFFFFFFFFFFFFFFFFFFFFFFFFFFFFFFFFFFFFFFFFFFFFFFFFFFFFF0000FFFFFFFFFFFFFFFFFFFFFFFFFFFFFFFFFFFFFFFFFFFFFFFFFFFFFFFF
310
FFFF0000FFFFFFFFFFFFFFFFFFFFFFFFFFFFFFFFFFFFFFFFFFFFFFFFFFFFFFFFFFFF0000FFFFFFFFFFFFFFFFFFFFFFFFFFFFFFFFFFFFFFFFFFFFFFFFFFFFFFFFFFFF0000FFFFFFFFFFFFFFFFFFFFFFFFFFFFFFFFFFFFFFFFFFFFFFFFFFFFFFFFFFFF0000FFFFFFFFFFFFFFFFFFFFFFFFFFFFFFFFFFFFFFFFFFFFFFFFFFFFFF
310
FFFFFF0000FFFFFFFFFFFFFFFFFFFFFFFFFFFFFFFFFFFFFFFFFFFFFFFFFFFFFFFFFFFF0000FFFFFFFFFFFFFFFFFFFFFFFFFFFFFFFFFFFFFFFFFFFFFFFFFFFFFFFFFFFF0000FFFFFFFFFFFFFFFFFFFFFFFFFFFFFFFFFFFFFFFFFFFFFFFFFFFFFFFFFFFF0000FFFFFFFFFFFFFFFFFFFFFFFFFFFFFFFFFFFFFFFFFFFFFFFFFFFF
310
FFFFFFFF0000FFFFFFFFFFFFFFFFFFFFFFFFFFFFFFFFFFFFFFFFFFFFFFFFFFFFFFFFFFFF0000FFFFFFFFFFFFFFFFFFFFFFFFFFFFFFFFFFFFFFFFFFFFFFFFFFFFFFFFFFFF0000FFFFFFFFFFFFFFFFFFFFFFFFFFFFFFFFFFFFFFFFFFFFFFFFFFFFFFFFFFFF0000FFFFFFFFFFFFFFFFFFFFFFFFFFFFFFFFFFFFFFFFFFFFFFFFFF
310
FFFFFFFFFF0000FFFFFFFFFFFFFFFFFFFFFFFFFFFFFFFFFFFFFFFFFFFFFFFFFFFFFFFFFFFF0000FFFFFFFFFFFFFFFFFFFFFFFFFFFFFFFFFFFFFFFFFFFFFFFFFFFFFFFFFFFF0000FFFFFFFFFFFFFFFFFFFFFFFFFFFFFFFFFFFFFFFFFFFFFFFFFFFFFFFFFFFF0000FFFFFFFFFFFFFFFFFFFFFFFFFFFFFFFFFFFFFFFFFFFFFFFF
310
FFFFFFFFFFFF0000FFFFFFFFFFFFFFFFFFFFFFFFFFFFFFFFFFFFFFFFFFFFFFFFFFFFFFFFFFFF00FFFFFFFFFFFFFFFFFFFFFFFFFFFFFFFFFFFFFFFFFFFFFFFFFFFFFFFFFFFFFF00FFFFFFFFFFFFFFFFFFFFFFFFFFFFFFFFFFFFFFFFFFFFFFFFFFFFFFFFFFFFFF00FFFFFFFFFFFFFFFFFFFFFFFFFFFFFFFFFFFFFFFFFFFFFFFF
310
FFFFFFFFFFFFFF00FFFFFFFFFFFFFFFFFFFFFFFFFFFFFFFFFFFFFFFFFFFFFFFFFFFFFFFFFFFFFFFFFFFFFFFFFFFFFFFFFFFFFFFFFFFFFFFF
102
{BLKREFS
331
52D
102
}
  0
BLOCK_RECORD
  5
1F
330
1
100
AcDbSymbolTableRecord
100
AcDbBlockTableRecord
  2
MS_2
340
0
102
{BLKREFS
331
152
102
}
  0
BLOCK_RECORD
  5
21
330
1
100
AcDbSymbolTableRecord
100
AcDbBlockTableRecord
  2
_OPEN30
340
0
  0
BLOCK_RECORD
  5
4A9
330
1
100
AcDbSymbolTableRecord
100
AcDbBlockTableRecord
  2
MSA_1
340
0
310
2800000020000000200000000100080000000000000400000000000000000000000000000000000000000000000080000080000000808000800000008000800080800000C0C0C000C0DCC000F0CAA6000020400000206000002080000020A0000020C0000020E00000400000004020000040400000406000004080000040A0
310
000040C0000040E00000600000006020000060400000606000006080000060A0000060C0000060E00000800000008020000080400000806000008080000080A0000080C0000080E00000A0000000A0200000A0400000A0600000A0800000A0A00000A0C00000A0E00000C0000000C0200000C0400000C0600000C0800000C0
310
A00000C0C00000C0E00000E0000000E0200000E0400000E0600000E0800000E0A00000E0C00000E0E00040000000400020004000400040006000400080004000A0004000C0004000E00040200000402020004020400040206000402080004020A0004020C0004020E000404000004040200040404000404060004040800040
310
40A0004040C0004040E00040600000406020004060400040606000406080004060A0004060C0004060E00040800000408020004080400040806000408080004080A0004080C0004080E00040A0000040A0200040A0400040A0600040A0800040A0A00040A0C00040A0E00040C0000040C0200040C0400040C0600040C08000
310
40C0A00040C0C00040C0E00040E0000040E0200040E0400040E0600040E0800040E0A00040E0C00040E0E00080000000800020008000400080006000800080008000A0008000C0008000E00080200000802020008020400080206000802080008020A0008020C0008020E00080400000804020008040400080406000804080
310
008040A0008040C0008040E00080600000806020008060400080606000806080008060A0008060C0008060E00080800000808020008080400080806000808080008080A0008080C0008080E00080A0000080A0200080A0400080A0600080A0800080A0A00080A0C00080A0E00080C0000080C0200080C0400080C0600080C0
310
800080C0A00080C0C00080C0E00080E0000080E0200080E0400080E0600080E0800080E0A00080E0C00080E0E000C0000000C0002000C0004000C0006000C0008000C000A000C000C000C000E000C0200000C0202000C0204000C0206000C0208000C020A000C020C000C020E000C0400000C0402000C0404000C0406000C0
310
408000C040A000C040C000C040E000C0600000C0602000C0604000C0606000C0608000C060A000C060C000C060E000C0800000C0802000C0804000C0806000C0808000C080A000C080C000C080E000C0A00000C0A02000C0A04000C0A06000C0A08000C0A0A000C0A0C000C0A0E000C0C00000C0C02000C0C04000C0C06000
310
C0C08000C0C0A000F0FBFF00A4A0A000808080000000FF0000FF000000FFFF00FF000000FF00FF00FFFF0000FFFFFF00FFFFFFFFFFFFFFFFFFFFFFFFFFFFFFFFFFFFFFFFFFFFFFFFFFFFFFFFFFFFFFFFFFFFFFFFFFFFFFFFFFFFFFFFFFFFFFFFFFFFFFFFFFFFFFFFFFFFFFFFFFFFFFFFFFFFFFFFFFFFFFFFFFFFFFFFFFFFFF
310
FFFFFFFFFFFFFFFFFFFFFFFFFFFFFFFFFFFFFFFFFFFFFFFFFFFFFFFFFFFFFFFFFFFFFFFFFFFFFFFFFFFFFFFFFFFFFFFFFFFFFFFFFFFFFFFFFFFFFFFFFFFFFFFFFFFFFFFFFFFFFFFFFFFFFFFFFFFFFFFFFFFFFFFFFFFFFFFFFFFFFFFFFFFFFFFFFFFFFFFFFFFFFFFFFFFFFFFFFFFFFFFFFFFFFFFFFFFFFFFFFFFFFFFFFFFFFF
310
FFFFFFFFFFFFFFFFFFFFFFFFFFFFFFFFFFFFFFFFFFFFFFFFFFFFFFFFFFFFFFFFFFFFFFFFFFFFFFFFFFFFFFFFFFFFFFFFFFFFFFFFFFFFFFFFFFFFFFFFFFFFFFFFFFFFFFFFFFFFFFFFFFFFFFFFFFFFFFFFFFFFFFFFFFFFFFFFFFFFFF000000000000000000000000000000000000000000FFFFFFFFFFFFFFFFFFFFFF0000FBFB
310
00000000FB00FFFFFFFFFFFF000000000000FFFFFFFFFFFFFFFFFFFF000000FB00FF0000FB00000000000000000000000000FFFFFFFFFFFFFFFFFFFF000000FFFFFFFFFFFF00FFFF0000FFFFFF0000000000FFFFFFFFFFFFFFFFFFFF000000FF00FF00FFFF00000000000000000000000000FFFFFFFFFFFFFFFFFFFF00FFFB
310
FB00000000FB00FFFFFFFFFFFFFFFFFFFF0000FFFFFFFFFFFFFFFFFFFF0000FB0000000000FB000000000000000000FB000000FFFFFFFFFFFFFFFFFF0000FBFBFBFFFFFFFFFFFFFFFFFFFFFFFFFFFFFBFB0000FFFFFFFF00000000000000FFFFFFFFFFFFFFFFFFFFFFFFFFFFFFFFFFFFFF0000FFFFFBFB00000000000000FF
310
FFFFFFFFFFFFFFFFFFFFFFFFFFFFFFFFFFFF0000FFFFFFFFFFFFFFFFFF0000FFFFFFFFFFFFFFFFFFFFFFFFFFFFFFFFFFFFFF0000FFFFFFFFFFFFFFFFFFFF00000000000000000000000000000000000000000000FFFFFFFFFFFFFFFFFFFF00FFFF0000FFFFFFFFFFFFFFFFFFFFFF0000FBFFFF00FFFFFFFFFFFFFFFFFFFF00
310
000000FB000000000000000000000000FB000000FFFFFFFFFFFFFFFFFFFFFFFFFFFFFFFFFFFFFFFFFFFFFFFFFFFFFFFFFFFFFFFFFFFFFFFFFFFFFFFFFFFFFFFFFFFFFFFFFFFFFFFFFFFFFFFFFFFFFFFFFFFFFFFFFFFFFFFFFFFFFFFFFFFFFFFFFFFFFFFFFFFFFFFFFFFFFFFFFFFFFFFFFFFFFFFFFFFFFFFFFFFFFFFFFFFFFF
310
FFFFFFFFFFFFFFFFFFFFFFFFFFFFFFFFFFFFFFFFFFFFFFFFFFFFFFFFFFFFFFFFFFFFFFFFFFFFFFFFFFFFFFFFFFFFFFFFFFFFFFFFFFFFFFFFFFFFFFFFFFFFFFFFFFFFFFFFFFFFFFFFFFFFFFFFFFFFFFFFFFFFFFFFFFFFFFFFFFFFFFFFFFFFFFFFFFFFFFFFFFFFFFFFFFFFFFFFFFFFFFFFFFFFFFFFFFFFFFFFFFFFFFFFFFFFFF
310
FFFFFFFFFFFFFFFFFFFFFFFFFFFFFFFFFFFFFFFFFFFFFFFFFFFFFFFFFFFFFFFFFFFFFFFFFFFFFFFFFFFFFFFFFFFFFFFFFFFFFFFFFFFFFFFF
102
{BLKREFS
331
52E
102
}
  0
BLOCK_RECORD
  5
532
330
1
100
AcDbSymbolTableRecord
100
AcDbBlockTableRecord
  2
MS_3
340
0
310
2800000020000000200000000100080000000000000400000000000000000000000000000000000000000000000080000080000000808000800000008000800080800000C0C0C000C0DCC000F0CAA6000020400000206000002080000020A0000020C0000020E00000400000004020000040400000406000004080000040A0
310
000040C0000040E00000600000006020000060400000606000006080000060A0000060C0000060E00000800000008020000080400000806000008080000080A0000080C0000080E00000A0000000A0200000A0400000A0600000A0800000A0A00000A0C00000A0E00000C0000000C0200000C0400000C0600000C0800000C0
310
A00000C0C00000C0E00000E0000000E0200000E0400000E0600000E0800000E0A00000E0C00000E0E00040000000400020004000400040006000400080004000A0004000C0004000E00040200000402020004020400040206000402080004020A0004020C0004020E000404000004040200040404000404060004040800040
310
40A0004040C0004040E00040600000406020004060400040606000406080004060A0004060C0004060E00040800000408020004080400040806000408080004080A0004080C0004080E00040A0000040A0200040A0400040A0600040A0800040A0A00040A0C00040A0E00040C0000040C0200040C0400040C0600040C08000
310
40C0A00040C0C00040C0E00040E0000040E0200040E0400040E0600040E0800040E0A00040E0C00040E0E00080000000800020008000400080006000800080008000A0008000C0008000E00080200000802020008020400080206000802080008020A0008020C0008020E00080400000804020008040400080406000804080
310
008040A0008040C0008040E00080600000806020008060400080606000806080008060A0008060C0008060E00080800000808020008080400080806000808080008080A0008080C0008080E00080A0000080A0200080A0400080A0600080A0800080A0A00080A0C00080A0E00080C0000080C0200080C0400080C0600080C0
310
800080C0A00080C0C00080C0E00080E0000080E0200080E0400080E0600080E0800080E0A00080E0C00080E0E000C0000000C0002000C0004000C0006000C0008000C000A000C000C000C000E000C0200000C0202000C0204000C0206000C0208000C020A000C020C000C020E000C0400000C0402000C0404000C0406000C0
310
408000C040A000C040C000C040E000C0600000C0602000C0604000C0606000C0608000C060A000C060C000C060E000C0800000C0802000C0804000C0806000C0808000C080A000C080C000C080E000C0A00000C0A02000C0A04000C0A06000C0A08000C0A0A000C0A0C000C0A0E000C0C00000C0C02000C0C04000C0C06000
310
C0C08000C0C0A000F0FBFF00A4A0A000808080000000FF0000FF000000FFFF00FF000000FF00FF00FFFF0000FFFFFF00FFFFFFFFFFFFFFFFFFFFFFFFFFFFFFFFFFFFFFFFFFFFFFFFFFFFFFFFFFFFFFFFFFFFFFFFFFFFFFFFFFFFFFFFFFFFFFFFFFFFFFFFFFFFFFFFFFFFFFFFFFFFFFFFFFFFFFFFFFFFFFFFFFFFFFFFFFFFFF
310
FFFFFFFFFFFFFFFFFFFFFFFFFFFFFFFFFFFFFFFFFFFFFFFFFFFFFFFFFFFFFFFFFFFFFFFFFFFFFFFFFFFFFFFFFFFFFFFFFFFFFFFFFFFFFFFFFFFFFFFFFFFFFFFFFFFFFFFFFFFFFFFFFFFFFFFFFFFFFFFFFFFFFFFFFFFFFFFFFFFFFFFFFFFFFFFFFFFFFFFFFFFFFFFFFFFFFFFFFFFFFFFFFFFFFFFFFFFFFFFFFFFFFFFFFFFFFF
310
FFFFFFFFFFFFFFFFFFFFFFFFFFFFFFFFFFFFFFFFFFFFFFFFFFFFFFFFFFFFFFFFFFFFFFFFFFFFFFFFFFFFFFFFFFFFFFFFFFFFFFFFFFFFFFFFFFFFFFFFFFFFFFFFFFFFFFFFFFFFFFFFFFFFFFFFFFFFFFFFFFFFFFFFFFFFFFFFFFFFFFFFFFFFFFFFFFFFFFFFFFFFFFFFFFFFFFFFFFFFFFFFFFFFFFFFFFFFFFFFFFFFFFFFFFFFFF
310
FFFFFFFFFFFFFFFFFFFFFFFFFFFFFFFFFFFFFFFFFFFFFFFFFFFFFFFFFFFFFFFFFFFFFFFFFFFFFFFFFFFFFFFFFFFFFFFFFFFFFFFFFFFFFFFFFFFFFFFF0000FB00FB000000000000000000000000FB00000000FFFFFFFFFFFFFFFFFFFF00FFFBFFFBFFFFFFFFFFFFFFFFFFFFFFFFFBFFFF0000FFFFFFFFFFFFFFFFFFFF000000
310
00FB000000000000000000000000FB00000000FFFFFFFF000000FFFF0000FF0000FBFFFF00000000000000000000FB00FF0000FFFFFBFBFBFBFB000000000000FFFFFFFFFFFF00000000000000000000000000FFFFFFFF0000000000000000FBFBFFFFFFFBFB00000000000000000000000000FFFFFFFFFFFFFFFFFFFF00FF
310
00FBFFFFFFFFFB00FFFFFFFFFFFFFFFFFFFF0000FFFFFFFFFFFFFFFFFFFF00000000000000000000000000000000000000000000FFFFFFFFFFFFFFFFFFFFFFFFFFFFFFFFFFFFFFFFFFFFFFFFFFFFFFFFFFFFFFFFFFFFFFFFFFFFFFFFFFFFFFFFFFFFFFFFFFFFFFFFFFFFFFFFFFFFFFFFFFFFFFFFFFFFFFFFFFFFFFFFFFFFFF
310
FFFFFFFFFFFFFFFFFFFFFFFFFFFFFFFFFFFFFFFFFFFFFFFFFFFFFFFFFFFFFFFFFFFFFFFFFFFFFFFFFFFFFFFFFFFFFFFFFFFFFFFFFFFFFFFFFFFFFFFFFFFFFFFFFFFFFFFFFFFFFFFFFFFFFFFFFFFFFFFFFFFFFFFFFFFFFFFFFFFFFFFFFFFFFFFFFFFFFFFFFFFFFFFFFFFFFFFFFFFFFFFFFFFFFFFFFFFFFFFFFFFFFFFFFFFFFF
310
FFFFFFFFFFFFFFFFFFFFFFFFFFFFFFFFFFFFFFFFFFFFFFFFFFFFFFFFFFFFFFFFFFFFFFFFFFFFFFFFFFFFFFFFFFFFFFFFFFFFFFFFFFFFFFFFFFFFFFFFFFFFFFFFFFFFFFFFFFFFFFFFFFFFFFFFFFFFFFFFFFFFFFFFFFFFFFFFFFFFFFFFFFFFFFFFFFFFFFFFFFFFFFFFFFFFFFFFFFFFFFFFFFFFFFFFFFFFFFFFFFFFFFFFFFFFFF
310
FFFFFFFFFFFFFFFFFFFFFFFFFFFFFFFFFFFFFFFFFFFFFFFFFFFFFFFFFFFFFFFFFFFFFFFFFFFFFFFFFFFFFFFFFFFFFFFFFFFFFFFFFFFFFFFF
102
{BLKREFS
331
57B
102
}
  0
ENDTAB
  0
ENDSEC
  0
SECTION
  2
BLOCKS
  0
BLOCK
  5
D
330
A
100
AcDbEntity
  8
0
100
AcDbBlockBegin
  2
*MODEL_SPACE
 70
     0
 10
0.0
 20
0.0
 30
0.0
  3
*MODEL_SPACE
  1

  0
ENDBLK
  5
E
330
A
100
AcDbEntity
  8
0
100
AcDbBlockEnd
  0
BLOCK
  5
F
330
B
100
AcDbEntity
 67
     1
  8
0
100
AcDbBlockBegin
  2
*PAPER_SPACE
 70
     0
 10
0.0
 20
0.0
 30
0.0
  3
*PAPER_SPACE
  1

  0
ENDBLK
  5
10
330
B
100
AcDbEntity
 67
     1
  8
0
100
AcDbBlockEnd
  0
BLOCK
  5
27
330
1E
100
AcDbEntity
  8
0
100
AcDbBlockBegin
  2
MS_1
 70
     0
 10
0.0
 20
0.0
 30
0.0
  3
MS_1
  1

  0
LINE
  5
4A6
330
1E
100
AcDbEntity
  8
0
  6
Continuous
 62
     7
100
AcDbLine
 10
-72.49999999999999
 20
-46.96697268716465
 30
0.0
 11
-72.49999999999999
 21
-3.966972687164627
 31
0.0
  0
LINE
  5
4A7
330
1E
100
AcDbEntity
  8
0
  6
Continuous
 62
     7
100
AcDbLine
 10
-73.00000000000001
 20
-46.96697268716465
 30
0.0
 11
-73.00000000000001
 21
1.533027312835372
 31
0.0
  0
ENDBLK
  5
CC
330
1E
100
AcDbEntity
  8
0
100
AcDbBlockEnd
  0
BLOCK
  5
CD
330
1F
100
AcDbEntity
  8
0
100
AcDbBlockBegin
  2
MS_2
 70
     0
 10
0.0
 20
0.0
 30
0.0
  3
MS_2
  1

  0
LINE
  5
CE
330
1F
100
AcDbEntity
  8
0
  6
Continuous
 62
     2
100
AcDbLine
 10
3.00000000000017
 20
-23.99999999999997
 30
0.0
 11
-11.5
 21
-24.00000000000017
 31
0.0
  0
LINE
  5
CF
330
1F
100
AcDbEntity
  8
0
  6
Continuous
 62
     2
100
AcDbLine
 10
2.999999999999828
 20
22.49999999999997
 30
0.0
 11
-32.0
 21
22.49999999999997
 31
0.0
  0
LINE
  5
D0
330
1F
100
AcDbEntity
  8
0
  6
Continuous
 62
     7
100
AcDbLine
 10
-15.0
 20
-24.5
 30
0.0
 11
-15.0
 21
-4.0
 31
0.0
  0
LINE
  5
D1
330
1F
100
AcDbEntity
  8
0
  6
Continuous
 62
     7
100
AcDbLine
 10
0.0
 20
-28.0
 30
0.0
 11
0.0
 21
26.49999999999997
 31
0.0
  0
LINE
  5
D2
330
1F
100
AcDbEntity
  8
0
  6
Continuous
 62
     7
100
AcDbLine
 10
0.0
 20
26.49999999999997
 30
0.0
 11
-29.0
 21
26.49999999999997
 31
0.0
  0
LINE
  5
D3
330
1F
100
AcDbEntity
  8
0
  6
Continuous
 62
     7
100
AcDbLine
 10
-29.0
 20
26.49999999999997
 30
0.0
 11
-29.0
 21
-4.0
 31
0.0
  0
LINE
  5
D4
330
1F
100
AcDbEntity
  8
0
  6
Continuous
 62
     7
100
AcDbLine
 10
-17.0
 20
-24.5
 30
0.0
 11
-17.0
 21
-20.0
 31
0.0
  0
LINE
  5
D5
330
1F
100
AcDbEntity
  8
0
  6
Continuous
 62
     7
100
AcDbLine
 10
-28.00000000000003
 20
-29.5
 30
0.0
 11
-9.0
 21
-29.5
 31
0.0
  0
LINE
  5
D6
330
1F
100
AcDbEntity
  8
0
  6
Continuous
 62
     7
100
AcDbLine
 10
-30.0
 20
-27.5
 30
0.0
 11
-30.0
 21
-5.0
 31
0.0
  0
LINE
  5
D7
330
1F
100
AcDbEntity
  8
0
  6
Continuous
 62
     7
100
AcDbLine
 10
-26.0
 20
-25.5
 30
0.0
 11
-9.0
 21
-25.5
 31
0.0
  0
LINE
  5
D8
330
1F
100
AcDbEntity
  8
0
  6
Continuous
 62
     7
100
AcDbLine
 10
-26.0
 20
-5.5
 30
0.0
 11
-18.0
 21
-5.5
 31
0.0
  0
LINE
  5
D9
330
1F
100
AcDbEntity
  8
0
  6
Continuous
 62
     7
100
AcDbLine
 10
-26.0
 20
-25.5
 30
0.0
 11
-26.0
 21
-5.0
 31
0.0
  0
LINE
  5
DA
330
1F
100
AcDbEntity
  8
0
  6
Continuous
 62
     7
100
AcDbLine
 10
-30.0
 20
-5.0
 30
0.0
 11
-26.0
 21
-5.0
 31
0.0
  0
LINE
  5
DB
330
1F
100
AcDbEntity
  8
0
  6
Continuous
 62
     7
100
AcDbLine
 10
-9.0
 20
-29.5
 30
0.0
 11
-9.0
 21
-25.5
 31
0.0
  0
LINE
  5
DC
330
1F
100
AcDbEntity
  8
0
  6
Continuous
 62
     7
100
AcDbLine
 10
-22.0
 20
-20.0
 30
0.0
 11
-16.0
 21
-20.0
 31
0.0
  0
LINE
  5
DD
330
1F
100
AcDbEntity
  8
0
  6
Continuous
 62
     7
100
AcDbLine
 10
-18.0
 20
-25.5
 30
0.0
 11
-18.0
 21
-20.0
 31
0.0
  0
LINE
  5
DE
330
1F
100
AcDbEntity
  8
0
  6
Continuous
 62
     7
100
AcDbLine
 10
-16.0
 20
-20.0
 30
0.0
 11
-16.0
 21
-11.0
 31
0.0
  0
LINE
  5
DF
330
1F
100
AcDbEntity
  8
0
  6
Continuous
 62
     7
100
AcDbLine
 10
-22.0
 20
-11.0
 30
0.0
 11
-16.0
 21
-11.0
 31
0.0
  0
LINE
  5
E0
330
1F
100
AcDbEntity
  8
0
  6
Continuous
 62
     7
100
AcDbLine
 10
-8.5
 20
-28.0
 30
0.0
 11
-8.5
 21
18.49999999999997
 31
0.0
  0
LINE
  5
E1
330
1F
100
AcDbEntity
  8
0
  6
Continuous
 62
     7
100
AcDbLine
 10
-17.0
 20
-24.5
 30
0.0
 11
-8.5
 21
-24.5
 31
0.0
  0
LINE
  5
E2
330
1F
100
AcDbEntity
  8
0
  6
Continuous
 62
     7
100
AcDbLine
 10
-8.5
 20
-28.0
 30
0.0
 11
0.0
 21
-28.0
 31
0.0
  0
LINE
  5
E3
330
1F
100
AcDbEntity
  8
0
  6
Continuous
 62
     7
100
AcDbLine
 10
-17.0
 20
-11.0
 30
0.0
 11
-17.0
 21
-4.0
 31
0.0
  0
LINE
  5
E4
330
1F
100
AcDbEntity
  8
0
  6
Continuous
 62
     7
100
AcDbLine
 10
-22.0
 20
-20.0
 30
0.0
 11
-22.0
 21
-11.0
 31
0.0
  0
LINE
  5
E5
330
1F
100
AcDbEntity
  8
0
  6
Continuous
 62
     7
100
AcDbLine
 10
-18.0
 20
-11.0
 30
0.0
 11
-18.0
 21
-5.5
 31
0.0
  0
LINE
  5
E6
330
1F
100
AcDbEntity
  8
0
  6
Continuous
 62
     7
100
AcDbLine
 10
-29.0
 20
24.00000000000003
 30
0.0
 11
0.0
 21
24.00000000000003
 31
0.0
  0
LINE
  5
E7
330
1F
100
AcDbEntity
  8
0
  6
Continuous
 62
     7
100
AcDbLine
 10
-8.5
 20
-24.49999999999997
 30
0.0
 11
0.0
 21
-24.49999999999997
 31
0.0
  0
LINE
  5
E8
330
1F
100
AcDbEntity
  8
0
  6
Continuous
 62
     7
100
AcDbLine
 10
-29.0
 20
-4.0
 30
0.0
 11
-15.0
 21
-4.0
 31
0.0
  0
LINE
  5
E9
330
1F
100
AcDbEntity
  8
0
  6
Continuous
 62
     7
100
AcDbLine
 10
-29.0
 20
18.49999999999997
 30
0.0
 11
-8.5
 21
18.49999999999997
 31
0.0
  0
CIRCLE
  5
EA
330
1F
100
AcDbEntity
  8
0
  6
Continuous
 62
     7
100
AcDbCircle
 10
-10.99999999999982
 20
-21.9999999999956
 30
0.0
 40
1.5
  0
CIRCLE
  5
EB
330
1F
100
AcDbEntity
  8
0
  6
Continuous
 62
     7
100
AcDbCircle
 10
-10.9999999999988
 20
16.50000000000437
 30
0.0
 40
1.5
  0
LINE
  5
EC
330
1F
100
AcDbEntity
  8
0
  6
Continuous
 62
     7
100
AcDbLine
 10
-30.0
 20
-27.5
 30
0.0
 11
-28.00000000000003
 21
-29.5
 31
0.0
  0
LINE
  5
ED
330
1F
100
AcDbEntity
  8
0
  6
Continuous
 62
     7
100
AcDbLine
 10
-11.70710678118536
 20
15.79289321881783
 30
0.0
 11
-10.29289321881225
 21
17.20710678119092
 31
0.0
  0
LINE
  5
EE
330
1F
100
AcDbEntity
  8
0
  6
Continuous
 62
     7
100
AcDbLine
 10
-10.29289321881225
 20
15.79289321881783
 30
0.0
 11
-11.70710678118536
 21
17.20710678119092
 31
0.0
  0
LINE
  5
EF
330
1F
100
AcDbEntity
  8
0
  6
Continuous
 62
     7
100
AcDbLine
 10
-11.70710678118638
 20
-22.70710678118215
 30
0.0
 11
-10.29289321881327
 21
-21.29289321880905
 31
0.0
  0
LINE
  5
F0
330
1F
100
AcDbEntity
  8
0
  6
Continuous
 62
     7
100
AcDbLine
 10
-10.29289321881327
 20
-22.70710678118215
 30
0.0
 11
-11.70710678118638
 21
-21.29289321880905
 31
0.0
  0
LINE
  5
F1
330
1F
100
AcDbEntity
  8
0
  6
Continuous
 62
     2
100
AcDbLine
 10
-3.00000000000017
 20
0.0
 30
0.0
 11
2.999999999999828
 21
0.0
 31
0.0
  0
ENDBLK
  5
F2
330
1F
100
AcDbEntity
  8
0
100
AcDbBlockEnd
  0
BLOCK
  5
22
330
21
100
AcDbEntity
  8
0
 62
     0
100
AcDbBlockBegin
  2
_OPEN30
 70
     2
 10
0.0
 20
0.0
 30
0.0
  3
_OPEN30
  1

  0
LINE
  5
23
330
21
100
AcDbEntity
  8
0
  6
ByBlock
 62
     0
100
AcDbLine
 10
-1.0
 20
0.267949
 30
0.0
 11
0.0
 21
0.0
 31
0.0
  0
LINE
  5
24
330
21
100
AcDbEntity
  8
0
  6
ByBlock
 62
     0
100
AcDbLine
 10
0.0
 20
0.0
 30
0.0
 11
-1.0
 21
-0.267949
 31
0.0
  0
LINE
  5
25
330
21
100
AcDbEntity
  8
0
  6
ByBlock
 62
     0
100
AcDbLine
 10
0.0
 20
0.0
 30
0.0
 11
-1.0
 21
0.0
 31
0.0
  0
ENDBLK
  5
26
330
21
100
AcDbEntity
  8
0
 62
     0
100
AcDbBlockEnd
  0
BLOCK
  5
4AA
330
4A9
100
AcDbEntity
  8
0
100
AcDbBlockBegin
  2
MSA_1
 70
     0
 10
0.0
 20
0.0
 30
0.0
  3
MSA_1
  1

  0
LINE
  5
4AC
330
4A9
100
AcDbEntity
  8
0
  6
Continuous
 62
     2
100
AcDbLine
 10
-103.951751724095
 20
-14.50000000000008
 30
0.0
 11
-69.78273871445208
 21
-14.50000000000008
 31
0.0
  0
LINE
  5
4AD
330
4A9
100
AcDbEntity
  8
0
  6
Continuous
 62
     7
100
AcDbLine
 10
-95.12076475333799
 20
-17.00000000000008
 30
0.0
 11
-76.16402708539187
 21
-17.00000000000008
 31
0.0
  0
LINE
  5
4AE
330
4A9
100
AcDbEntity
  8
0
  6
Continuous
 62
     7
100
AcDbLine
 10
-95.12076475333799
 20
-12.00000000000003
 30
0.0
 11
-76.16402708539187
 21
-12.00000000000008
 31
0.0
  0
LINE
  5
4AF
330
4A9
100
AcDbEntity
  8
0
  6
Continuous
 62
     7
100
AcDbLine
 10
-76.16402708539187
 20
-19.40000000000004
 30
0.0
 11
-76.16402708539187
 21
-9.600000000000079
 31
0.0
  0
ARC
  5
4B0
330
4A9
100
AcDbEntity
  8
0
  6
Continuous
 62
     7
100
AcDbCircle
 10
-75.56402708539184
 20
-9.600000000000079
 30
0.0
 40
0.6
100
AcDbArc
 50
90.0
 51
180.0
  0
ARC
  5
4B1
330
4A9
100
AcDbEntity
  8
0
  6
Continuous
 62
     7
100
AcDbCircle
 10
-75.56402708539184
 20
-19.40000000000004
 30
0.0
 40
0.6
100
AcDbArc
 50
180.0
 51
270.0
  0
LINE
  5
4B2
330
4A9
100
AcDbEntity
  8
0
  6
Continuous
 62
     7
100
AcDbLine
 10
-75.56402708539184
 20
-20.00000000000005
 30
0.0
 11
-73.1640270853919
 21
-20.00000000000005
 31
0.0
  0
LINE
  5
4B3
330
4A9
100
AcDbEntity
  8
0
  6
Continuous
 62
     7
100
AcDbLine
 10
-75.56402708539184
 20
-9.000000000000078
 30
0.0
 11
-73.1640270853919
 21
-9.000000000000078
 31
0.0
  0
LINE
  5
4B4
330
4A9
100
AcDbEntity
  8
0
  6
Continuous
 62
     7
100
AcDbLine
 10
14.33597291460811
 20
4.0
 30
0.0
 11
16.83597291460811
 21
1.5
 31
0.0
  0
LINE
  5
4B5
330
4A9
100
AcDbEntity
  8
0
  6
Continuous
 62
     7
100
AcDbLine
 10
-72.16402708539186
 20
-32.99999999999997
 30
0.0
 11
-64.16402708539187
 21
-32.99999999999997
 31
0.0
  0
LINE
  5
4B6
330
4A9
100
AcDbEntity
  8
0
  6
Continuous
 62
     7
100
AcDbLine
 10
15.83597291460811
 20
-46.99999999999997
 30
0.0
 11
15.83597291460811
 21
-26.49999999999997
 31
0.0
  0
LINE
  5
4B7
330
4A9
100
AcDbEntity
  8
0
  6
Continuous
 62
     7
100
AcDbLine
 10
-72.16402708539186
 20
-47.00000000000002
 30
0.0
 11
-72.16402708539186
 21
-26.49999999999997
 31
0.0
  0
LINE
  5
4B8
330
4A9
100
AcDbEntity
  8
0
  6
Continuous
 62
     7
100
AcDbLine
 10
16.33597291460811
 20
-46.99999999999997
 30
0.0
 11
16.33597291460811
 21
-4.0
 31
0.0
  0
LINE
  5
4B9
330
4A9
100
AcDbEntity
  8
0
  6
Continuous
 62
     7
100
AcDbLine
 10
-65.6640270853919
 20
-42.49999999999997
 30
0.0
 11
-65.6640270853919
 21
-33.49999999999997
 31
0.0
  0
LINE
  5
4BA
330
4A9
100
AcDbEntity
  8
0
  6
Continuous
 62
     7
100
AcDbLine
 10
-64.16402708539187
 20
-46.99999999999997
 30
0.0
 11
-73.1640270853919
 21
-46.99999999999997
 31
0.0
  0
CIRCLE
  5
4BB
330
4A9
100
AcDbEntity
  8
0
  6
Continuous
 62
     7
100
AcDbCircle
 10
-0.1640270853919228
 20
-46.49999999999997
 30
0.0
 40
1.75
  0
LINE
  5
4BC
330
4A9
100
AcDbEntity
  8
0
  6
Continuous
 62
     2
100
AcDbLine
 10
-0.1640270853918784
 20
-42.34254642966425
 30
0.0
 11
-0.1640270853919858
 21
-50.92139139957229
 31
0.0
  0
LINE
  5
4BD
330
4A9
100
AcDbEntity
  8
0
  6
Continuous
 62
     2
100
AcDbLine
 10
-4.606575120978554
 20
-46.49999999999992
 30
0.0
 11
3.921507452657857
 21
-46.50000000000002
 31
0.0
  0
CIRCLE
  5
4BE
330
4A9
100
AcDbEntity
  8
0
  6
Continuous
 62
     7
100
AcDbCircle
 10
-0.1640270853919228
 20
-46.50000000000006
 30
0.0
 40
3.25
  0
LINE
  5
4BF
330
4A9
100
AcDbEntity
  8
0
  6
Continuous
 62
     7
100
AcDbLine
 10
-56.91402708539188
 20
-30.49999999999997
 30
0.0
 11
-56.91402708539188
 21
-27.49999999999997
 31
0.0
  0
LINE
  5
4C0
330
4A9
100
AcDbEntity
  8
0
  6
Continuous
 62
     7
100
AcDbLine
 10
-50.41402708539187
 20
-30.49999999999997
 30
0.0
 11
-50.41402708539187
 21
-27.49999999999997
 31
0.0
  0
LINE
  5
4C1
330
4A9
100
AcDbEntity
  8
0
  6
Continuous
 62
     7
100
AcDbLine
 10
-40.41402708539187
 20
-30.49999999999997
 30
0.0
 11
-40.41402708539187
 21
-27.49999999999997
 31
0.0
  0
LINE
  5
4C2
330
4A9
100
AcDbEntity
  8
0
  6
Continuous
 62
     7
100
AcDbLine
 10
-46.91402708539188
 20
-30.49999999999997
 30
0.0
 11
-46.91402708539188
 21
-27.49999999999997
 31
0.0
  0
CIRCLE
  5
4C3
330
4A9
100
AcDbEntity
  8
0
  6
Continuous
 62
     7
100
AcDbCircle
 10
-43.66402708539188
 20
-45.49999999999997
 30
0.0
 40
3.25
  0
CIRCLE
  5
4C4
330
4A9
100
AcDbEntity
  8
0
  6
Continuous
 62
     7
100
AcDbCircle
 10
-53.66402708539188
 20
-45.49999999999997
 30
0.0
 40
3.25
  0
ARC
  5
4C5
330
4A9
100
AcDbEntity
  8
0
  6
Continuous
 62
     7
100
AcDbCircle
 10
-53.66402708539188
 20
-30.49999999999997
 30
0.0
 40
3.25
100
AcDbArc
 50
180.0
 51
0.0
  0
ARC
  5
4C6
330
4A9
100
AcDbEntity
  8
0
  6
Continuous
 62
     7
100
AcDbCircle
 10
-43.66402708539188
 20
-30.49999999999997
 30
0.0
 40
3.25
100
AcDbArc
 50
180.0
 51
0.0
  0
LINE
  5
4C7
330
4A9
100
AcDbEntity
  8
0
  6
Continuous
 62
     2
100
AcDbLine
 10
-59.66402708539187
 20
-43.99999999999997
 30
0.0
 11
-59.66402708539187
 21
-47.99999999999997
 31
0.0
  0
LINE
  5
4C8
330
4A9
100
AcDbEntity
  8
0
  6
Continuous
 62
     2
100
AcDbLine
 10
-61.66402708539187
 20
-45.99999999999996
 30
0.0
 11
-57.66402708539187
 21
-45.99999999999996
 31
0.0
  0
LINE
  5
4C9
330
4A9
100
AcDbEntity
  8
0
  6
Continuous
 62
     2
100
AcDbLine
 10
-61.66402708539187
 20
-29.99999999999997
 30
0.0
 11
-57.66402708539187
 21
-29.99999999999997
 31
0.0
  0
CIRCLE
  5
4CA
330
4A9
100
AcDbEntity
  8
0
  6
Continuous
 62
     7
100
AcDbCircle
 10
-59.66402708539187
 20
-29.99999999999997
 30
0.0
 40
1.25
  0
LINE
  5
4CB
330
4A9
100
AcDbEntity
  8
0
  6
Continuous
 62
     2
100
AcDbLine
 10
-59.66402708539187
 20
-31.99999999999997
 30
0.0
 11
-59.66402708539187
 21
-27.99999999999997
 31
0.0
  0
LINE
  5
4CC
330
4A9
100
AcDbEntity
  8
0
  6
Continuous
 62
     7
100
AcDbLine
 10
-64.16402708539187
 20
-27.49999999999997
 30
0.0
 11
-33.16402708539188
 21
-27.49999999999997
 31
0.0
  0
LINE
  5
4CD
330
4A9
100
AcDbEntity
  8
0
  6
Continuous
 62
     7
100
AcDbLine
 10
-70.6640270853919
 20
4.0
 30
0.0
 11
14.33597291460811
 21
4.0
 31
0.0
  0
LINE
  5
4CE
330
4A9
100
AcDbEntity
  8
0
  6
Continuous
 62
     7
100
AcDbLine
 10
-64.16402708539187
 20
-42.49999999999997
 30
0.0
 11
-72.16402708539186
 21
-42.49999999999997
 31
0.0
  0
LINE
  5
4CF
330
4A9
100
AcDbEntity
  8
0
  6
Continuous
 62
     7
100
AcDbLine
 10
-65.6640270853919
 20
-33.49999999999997
 30
0.0
 11
-64.16402708539187
 21
-33.49999999999997
 31
0.0
  0
LINE
  5
4D0
330
4A9
100
AcDbEntity
  8
0
  6
Continuous
 62
     7
100
AcDbLine
 10
-69.66402708539186
 20
-50.49999999999997
 30
0.0
 11
-64.16402708539187
 21
-50.49999999999997
 31
0.0
  0
LINE
  5
4D1
330
4A9
100
AcDbEntity
  8
0
  6
Continuous
 62
     7
100
AcDbLine
 10
-72.66402708539186
 20
-26.49999999999997
 30
0.0
 11
16.33597291460811
 21
-26.49999999999997
 31
0.0
  0
LINE
  5
4D2
330
4A9
100
AcDbEntity
  8
0
  6
Continuous
 62
     2
100
AcDbLine
 10
-37.66402708539188
 20
-43.99999999999997
 30
0.0
 11
-37.66402708539188
 21
-47.99999999999997
 31
0.0
  0
LINE
  5
4D3
330
4A9
100
AcDbEntity
  8
0
  6
Continuous
 62
     2
100
AcDbLine
 10
-39.66402708539187
 20
-45.99999999999996
 30
0.0
 11
-35.66402708539186
 21
-45.99999999999996
 31
0.0
  0
LINE
  5
4D4
330
4A9
100
AcDbEntity
  8
0
  6
Continuous
 62
     2
100
AcDbLine
 10
-39.66402708539187
 20
-29.99999999999997
 30
0.0
 11
-35.66402708539186
 21
-29.99999999999997
 31
0.0
  0
LINE
  5
4D5
330
4A9
100
AcDbEntity
  8
0
  6
Continuous
 62
     2
100
AcDbLine
 10
-37.66402708539188
 20
-31.99999999999997
 30
0.0
 11
-37.66402708539188
 21
-27.99999999999997
 31
0.0
  0
LINE
  5
4D6
330
4A9
100
AcDbEntity
  8
0
  6
Continuous
 62
     7
100
AcDbLine
 10
-33.16402708539188
 20
-51.99999999999997
 30
0.0
 11
-64.16402708539187
 21
-51.99999999999997
 31
0.0
  0
LINE
  5
4D7
330
4A9
100
AcDbEntity
  8
0
  6
Continuous
 62
     7
100
AcDbLine
 10
16.83597291460811
 20
-46.99999999999997
 30
0.0
 11
16.83597291460811
 21
1.5
 31
0.0
  0
LINE
  5
4D8
330
4A9
100
AcDbEntity
  8
0
  6
Continuous
 62
     2
100
AcDbLine
 10
-56.16402708539188
 20
4.000000000000056
 30
0.0
 11
-56.16402708539176
 21
-3.999999999999943
 31
0.0
  0
CIRCLE
  5
4D9
330
4A9
100
AcDbEntity
  8
0
  6
Continuous
 62
     7
100
AcDbCircle
 10
-56.1640270853918
 20
0.0
 30
0.0
 40
1.75
  0
LINE
  5
4DA
330
4A9
100
AcDbEntity
  8
0
  6
Continuous
 62
     2
100
AcDbLine
 10
-52.16402708539181
 20
0.0000000000000924
 30
0.0
 11
-60.16402708539182
 21
0.0
 31
0.0
  0
CIRCLE
  5
4DB
330
4A9
100
AcDbEntity
  8
0
  6
Continuous
 62
     7
100
AcDbCircle
 10
-0.1640270853918784
 20
0.0
 30
0.0
 40
1.75
  0
LINE
  5
4DC
330
4A9
100
AcDbEntity
  8
0
  6
Continuous
 62
     2
100
AcDbLine
 10
-4.010229305459965
 20
0.0
 30
0.0
 11
4.010229305459965
 21
0.0
 31
0.0
  0
LINE
  5
4DD
330
4A9
100
AcDbEntity
  8
0
  6
Continuous
 62
     2
100
AcDbLine
 10
-0.1640270853918784
 20
4.0
 30
0.0
 11
-0.1640270853918784
 21
-4.066054625670744
 31
0.0
  0
CIRCLE
  5
4DE
330
4A9
100
AcDbEntity
  8
0
  6
Continuous
 62
     7
100
AcDbCircle
 10
-0.1640270853918784
 20
0.0
 30
0.0
 40
3.25
  0
CIRCLE
  5
4DF
330
4A9
100
AcDbEntity
  8
0
  6
Continuous
 62
     7
100
AcDbCircle
 10
-56.1640270853918
 20
-0.0000000000001208
 30
0.0
 40
3.25
  0
ARC
  5
4E0
330
4A9
100
AcDbEntity
  8
0
  6
Continuous
 62
     7
100
AcDbCircle
 10
-28.16402708539182
 20
-24.24999999999997
 30
0.0
 40
27.24999999999999
100
AcDbArc
 50
47.9978114646799
 51
132.0021885353201
  0
LINE
  5
4E1
330
4A9
100
AcDbEntity
  8
0
  6
Continuous
 62
     7
100
AcDbLine
 10
-9.929444556581366
 20
-4.0
 30
0.0
 11
16.83597291460811
 21
-4.0
 31
0.0
  0
LINE
  5
4E2
330
4A9
100
AcDbEntity
  8
0
  6
Continuous
 62
     7
100
AcDbLine
 10
-73.1640270853919
 20
-4.0
 30
0.0
 11
-46.39860961420226
 21
-4.0
 31
0.0
  0
LINE
  5
4E3
330
4A9
100
AcDbEntity
  8
0
  6
Continuous
 62
     7
100
AcDbLine
 10
-70.6640270853919
 20
4.0
 30
0.0
 11
-73.1640270853919
 21
1.5
 31
0.0
  0
LINE
  5
4E4
330
4A9
100
AcDbEntity
  8
0
  6
Continuous
 62
     7
100
AcDbLine
 10
-69.66402708539186
 20
-50.49999999999997
 30
0.0
 11
-73.1640270853919
 21
-47.00000000000002
 31
0.0
  0
LINE
  5
4E5
330
4A9
100
AcDbEntity
  8
0
  6
Continuous
 62
     7
100
AcDbLine
 10
-33.16402708539188
 20
-27.49999999999997
 30
0.0
 11
-33.16402708539188
 21
-51.99999999999997
 31
0.0
  0
LINE
  5
4E6
330
4A9
100
AcDbEntity
  8
0
  6
Continuous
 62
     7
100
AcDbLine
 10
13.33597291460811
 20
-50.49999999999997
 30
0.0
 11
16.83597291460811
 21
-47.00000000000002
 31
0.0
  0
LINE
  5
4E7
330
4A9
100
AcDbEntity
  8
0
  6
Continuous
 62
     7
100
AcDbLine
 10
4.335972914608113
 20
-46.99999999999997
 30
0.0
 11
16.83597291460811
 21
-46.99999999999997
 31
0.0
  0
LINE
  5
4E8
330
4A9
100
AcDbEntity
  8
0
  6
Continuous
 62
     7
100
AcDbLine
 10
13.33597291460811
 20
-50.49999999999997
 30
0.0
 11
-33.16402708539188
 21
-50.49999999999997
 31
0.0
  0
LINE
  5
4E9
330
4A9
100
AcDbEntity
  8
0
  6
Continuous
 62
     7
100
AcDbLine
 10
4.335972914608113
 20
-46.99999999999997
 30
0.0
 11
4.335972914608113
 21
-42.49999999999997
 31
0.0
  0
LINE
  5
4EA
330
4A9
100
AcDbEntity
  8
0
  6
Continuous
 62
     7
100
AcDbLine
 10
-33.16402708539188
 20
-42.49999999999997
 30
0.0
 11
15.83597291460811
 21
-42.49999999999997
 31
0.0
  0
LINE
  5
4EB
330
4A9
100
AcDbEntity
  8
0
  6
Continuous
 62
     7
100
AcDbLine
 10
-33.16402708539188
 20
-33.49999999999997
 30
0.0
 11
9.335972914608113
 21
-33.49999999999997
 31
0.0
  0
LINE
  5
4EC
330
4A9
100
AcDbEntity
  8
0
  6
Continuous
 62
     7
100
AcDbLine
 10
-33.16402708539188
 20
-32.99999999999997
 30
0.0
 11
15.83597291460811
 21
-32.99999999999997
 31
0.0
  0
LINE
  5
4ED
330
4A9
100
AcDbEntity
  8
0
  6
Continuous
 62
     7
100
AcDbLine
 10
9.335972914608113
 20
-42.49999999999997
 30
0.0
 11
9.335972914608113
 21
-33.49999999999997
 31
0.0
  0
CIRCLE
  5
4EE
330
4A9
100
AcDbEntity
  8
0
  6
Continuous
 62
     7
100
AcDbCircle
 10
1.340064406307114
 20
-37.99543579101558
 30
0.0
 40
3.0
  0
LINE
  5
4EF
330
4A9
100
AcDbEntity
  8
0
  6
Continuous
 62
     7
100
AcDbLine
 10
2.585972914607915
 20
-37.27831208705897
 30
0.0
 11
2.585972914607915
 21
-38.72168791294092
 31
0.0
  0
CIRCLE
  5
4F0
330
4A9
100
AcDbEntity
  8
0
  6
Continuous
 62
     7
100
AcDbCircle
 10
1.335972914607916
 20
-37.99999999999994
 30
0.0
 40
2.75
  0
LINE
  5
4F1
330
4A9
100
AcDbEntity
  8
0
  6
Continuous
 62
     7
100
AcDbLine
 10
0.0859729146079094
 20
-37.27831196784967
 30
0.0
 11
0.0859729146079094
 21
-38.72168803215021
 31
0.0
  0
LINE
  5
4F2
330
4A9
100
AcDbEntity
  8
0
  6
Continuous
 62
     7
100
AcDbLine
 10
1.335972368493905
 20
-36.55662516224945
 30
0.0
 11
2.58597235803608
 21
-37.27831286994926
 31
0.0
  0
LINE
  5
4F3
330
4A9
100
AcDbEntity
  8
0
  6
Continuous
 62
     7
100
AcDbLine
 10
0.0859729943426269
 20
-37.27831204404302
 30
0.0
 11
1.335972983884794
 21
-36.55662433634321
 31
0.0
  0
LINE
  5
4F4
330
4A9
100
AcDbEntity
  8
0
  6
Continuous
 62
     7
100
AcDbLine
 10
0.0859729943426269
 20
-38.72168795595687
 30
0.0
 11
1.335972983884794
 21
-39.44337566365667
 31
0.0
  0
LINE
  5
4F5
330
4A9
100
AcDbEntity
  8
0
  6
Continuous
 62
     7
100
AcDbLine
 10
1.335972368493905
 20
-39.44337483775043
 30
0.0
 11
2.58597235803608
 21
-38.72168713005064
 31
0.0
  0
CIRCLE
  5
4F6
330
4A9
100
AcDbEntity
  8
0
  6
Continuous
 62
     7
100
AcDbCircle
 10
-18.6599355936929
 20
-37.99543579101555
 30
0.0
 40
3.0
  0
LINE
  5
4F7
330
4A9
100
AcDbEntity
  8
0
  6
Continuous
 62
     7
100
AcDbLine
 10
-19.91402708539209
 20
-37.27831196784967
 30
0.0
 11
-19.91402708539209
 21
-38.72168803215021
 31
0.0
  0
LINE
  5
4F8
330
4A9
100
AcDbEntity
  8
0
  6
Continuous
 62
     7
100
AcDbLine
 10
-17.41402708539209
 20
-37.27831208705897
 30
0.0
 11
-17.41402708539209
 21
-38.72168791294092
 31
0.0
  0
CIRCLE
  5
4F9
330
4A9
100
AcDbEntity
  8
0
  6
Continuous
 62
     7
100
AcDbCircle
 10
-18.66402708539209
 20
-37.99999999999994
 30
0.0
 40
2.75
  0
LINE
  5
4FA
330
4A9
100
AcDbEntity
  8
0
  6
Continuous
 62
     7
100
AcDbLine
 10
-19.91402700565737
 20
-38.72168795595687
 30
0.0
 11
-18.6640270161152
 21
-39.44337566365667
 31
0.0
  0
LINE
  5
4FB
330
4A9
100
AcDbEntity
  8
0
  6
Continuous
 62
     7
100
AcDbLine
 10
-18.6640276315061
 20
-39.44337483775043
 30
0.0
 11
-17.41402764196392
 21
-38.72168713005064
 31
0.0
  0
LINE
  5
4FC
330
4A9
100
AcDbEntity
  8
0
  6
Continuous
 62
     7
100
AcDbLine
 10
-18.6640276315061
 20
-36.55662516224945
 30
0.0
 11
-17.41402764196392
 21
-37.27831286994926
 31
0.0
  0
LINE
  5
4FD
330
4A9
100
AcDbEntity
  8
0
  6
Continuous
 62
     7
100
AcDbLine
 10
-19.91402700565737
 20
-37.27831204404302
 30
0.0
 11
-18.6640270161152
 21
-36.55662433634321
 31
0.0
  0
LINE
  5
4FE
330
4A9
100
AcDbEntity
  8
0
  6
Continuous
 62
     7
100
AcDbLine
 10
-64.16402708539187
 20
-27.49999999999997
 30
0.0
 11
-64.16402708539187
 21
-51.99999999999997
 31
0.0
  0
LINE
  5
4FF
330
4A9
100
AcDbEntity
  8
0
  6
Continuous
 62
     7
100
AcDbLine
 10
-33.16402708539188
 20
-49.99999999999997
 30
0.0
 11
-64.16402708539187
 21
-49.99999999999997
 31
0.0
  0
CIRCLE
  5
500
330
4A9
100
AcDbEntity
  8
0
  6
Continuous
 62
     7
100
AcDbCircle
 10
-53.66404234418094
 20
-30.49998474121092
 30
0.0
 40
2.75
  0
LINE
  5
501
330
4A9
100
AcDbEntity
  8
0
  6
Continuous
 62
     7
100
AcDbLine
 10
-54.91404226444621
 20
-31.22167269716783
 30
0.0
 11
-53.66404227490402
 21
-31.94336040486763
 31
0.0
  0
LINE
  5
502
330
4A9
100
AcDbEntity
  8
0
  6
Continuous
 62
     7
100
AcDbLine
 10
-53.66404289029492
 20
-29.05660990346041
 30
0.0
 11
-52.41404290075276
 21
-29.77829761116021
 31
0.0
  0
LINE
  5
503
330
4A9
100
AcDbEntity
  8
0
  6
Continuous
 62
     7
100
AcDbLine
 10
-53.66404289029492
 20
-31.9433595789614
 30
0.0
 11
-52.41404290075276
 21
-31.2216718712616
 31
0.0
  0
LINE
  5
504
330
4A9
100
AcDbEntity
  8
0
  6
Continuous
 62
     7
100
AcDbLine
 10
-54.91404226444621
 20
-29.77829678525399
 30
0.0
 11
-53.66404227490402
 21
-29.05660907755418
 31
0.0
  0
LINE
  5
505
330
4A9
100
AcDbEntity
  8
0
  6
Continuous
 62
     7
100
AcDbLine
 10
-52.41404234418094
 20
-29.77829682826994
 30
0.0
 11
-52.41404234418094
 21
-31.22167265415189
 31
0.0
  0
LINE
  5
506
330
4A9
100
AcDbEntity
  8
0
  6
Continuous
 62
     7
100
AcDbLine
 10
-54.91404234418094
 20
-29.77829670906065
 30
0.0
 11
-54.91404234418094
 21
-31.22167277336118
 31
0.0
  0
CIRCLE
  5
507
330
4A9
100
AcDbEntity
  8
0
  6
Continuous
 62
     7
100
AcDbCircle
 10
-43.66404234418093
 20
-30.49999999999997
 30
0.0
 40
2.75
  0
LINE
  5
508
330
4A9
100
AcDbEntity
  8
0
  6
Continuous
 62
     7
100
AcDbLine
 10
-44.91404226444621
 20
-31.22168795595689
 30
0.0
 11
-43.66404227490402
 21
-31.94337566365669
 31
0.0
  0
LINE
  5
509
330
4A9
100
AcDbEntity
  8
0
  6
Continuous
 62
     7
100
AcDbLine
 10
-43.66404289029492
 20
-29.05662516224946
 30
0.0
 11
-42.41404290075275
 21
-29.77831286994927
 31
0.0
  0
LINE
  5
50A
330
4A9
100
AcDbEntity
  8
0
  6
Continuous
 62
     7
100
AcDbLine
 10
-43.66404289029492
 20
-31.94337483775046
 30
0.0
 11
-42.41404290075275
 21
-31.22168713005067
 31
0.0
  0
LINE
  5
50B
330
4A9
100
AcDbEntity
  8
0
  6
Continuous
 62
     7
100
AcDbLine
 10
-44.91404226444621
 20
-29.77831204404304
 30
0.0
 11
-43.66404227490402
 21
-29.05662433634325
 31
0.0
  0
LINE
  5
50C
330
4A9
100
AcDbEntity
  8
0
  6
Continuous
 62
     7
100
AcDbLine
 10
-42.41404234418093
 20
-29.77831208705899
 30
0.0
 11
-42.41404234418093
 21
-31.22168791294095
 31
0.0
  0
LINE
  5
50D
330
4A9
100
AcDbEntity
  8
0
  6
Continuous
 62
     7
100
AcDbLine
 10
-44.91404234418093
 20
-29.77831196784971
 30
0.0
 11
-44.91404234418093
 21
-31.22168803215024
 31
0.0
  0
CIRCLE
  5
50E
330
4A9
100
AcDbEntity
  8
0
  6
Continuous
 62
     7
100
AcDbCircle
 10
-43.66404234418093
 20
-45.49999999999997
 30
0.0
 40
2.75
  0
LINE
  5
50F
330
4A9
100
AcDbEntity
  8
0
  6
Continuous
 62
     7
100
AcDbLine
 10
-44.91404226444621
 20
-46.2216879559569
 30
0.0
 11
-43.66404227490402
 21
-46.9433756636567
 31
0.0
  0
LINE
  5
510
330
4A9
100
AcDbEntity
  8
0
  6
Continuous
 62
     7
100
AcDbLine
 10
-43.66404289029492
 20
-44.05662516224949
 30
0.0
 11
-42.41404290075275
 21
-44.77831286994927
 31
0.0
  0
LINE
  5
511
330
4A9
100
AcDbEntity
  8
0
  6
Continuous
 62
     7
100
AcDbLine
 10
-43.66404289029492
 20
-46.94337483775046
 30
0.0
 11
-42.41404290075275
 21
-46.22168713005066
 31
0.0
  0
LINE
  5
512
330
4A9
100
AcDbEntity
  8
0
  6
Continuous
 62
     7
100
AcDbLine
 10
-44.91404226444621
 20
-44.77831204404305
 30
0.0
 11
-43.66404227490402
 21
-44.05662433634325
 31
0.0
  0
LINE
  5
513
330
4A9
100
AcDbEntity
  8
0
  6
Continuous
 62
     7
100
AcDbLine
 10
-42.41404234418093
 20
-44.77831208705899
 30
0.0
 11
-42.41404234418093
 21
-46.22168791294095
 31
0.0
  0
LINE
  5
514
330
4A9
100
AcDbEntity
  8
0
  6
Continuous
 62
     7
100
AcDbLine
 10
-44.91404234418093
 20
-44.7783119678497
 30
0.0
 11
-44.91404234418093
 21
-46.22168803215024
 31
0.0
  0
CIRCLE
  5
515
330
4A9
100
AcDbEntity
  8
0
  6
Continuous
 62
     7
100
AcDbCircle
 10
-53.66404234418094
 20
-45.49999999999997
 30
0.0
 40
2.75
  0
LINE
  5
516
330
4A9
100
AcDbEntity
  8
0
  6
Continuous
 62
     7
100
AcDbLine
 10
-54.91404226444621
 20
-46.2216879559569
 30
0.0
 11
-53.66404227490402
 21
-46.9433756636567
 31
0.0
  0
LINE
  5
517
330
4A9
100
AcDbEntity
  8
0
  6
Continuous
 62
     7
100
AcDbLine
 10
-53.66404289029492
 20
-44.05662516224949
 30
0.0
 11
-52.41404290075276
 21
-44.77831286994927
 31
0.0
  0
LINE
  5
518
330
4A9
100
AcDbEntity
  8
0
  6
Continuous
 62
     7
100
AcDbLine
 10
-53.66404289029492
 20
-46.94337483775046
 30
0.0
 11
-52.41404290075276
 21
-46.22168713005066
 31
0.0
  0
LINE
  5
519
330
4A9
100
AcDbEntity
  8
0
  6
Continuous
 62
     7
100
AcDbLine
 10
-54.91404226444621
 20
-44.77831204404305
 30
0.0
 11
-53.66404227490402
 21
-44.05662433634325
 31
0.0
  0
LINE
  5
51A
330
4A9
100
AcDbEntity
  8
0
  6
Continuous
 62
     7
100
AcDbLine
 10
-52.41404234418094
 20
-44.77831208705899
 30
0.0
 11
-52.41404234418094
 21
-46.22168791294095
 31
0.0
  0
LINE
  5
51B
330
4A9
100
AcDbEntity
  8
0
  6
Continuous
 62
     7
100
AcDbLine
 10
-54.91404234418094
 20
-44.7783119678497
 30
0.0
 11
-54.91404234418094
 21
-46.22168803215024
 31
0.0
  0
LINE
  5
51C
330
4A9
100
AcDbEntity
  8
0
  6
DASHED
 62
     2
100
AcDbLine
 10
6.335972914607943
 20
-23.99999999999997
 30
0.0
 11
7.335972914607943
 21
-23.99999999999997
 31
0.0
  0
LINE
  5
51D
330
4A9
100
AcDbEntity
  8
0
  6
DASHED
 62
     2
100
AcDbLine
 10
6.335972914607943
 20
-20.99999999999997
 30
0.0
 11
7.335972914607943
 21
-20.99999999999997
 31
0.0
  0
ARC
  5
51E
330
4A9
100
AcDbEntity
  8
0
  6
DASHED
 62
     2
100
AcDbCircle
 10
6.335972914607943
 20
-22.49999999999997
 30
0.0
 40
1.5
100
AcDbArc
 50
90.0
 51
270.0
  0
ARC
  5
51F
330
4A9
100
AcDbEntity
  8
0
  6
DASHED
 62
     2
100
AcDbCircle
 10
7.335972914607943
 20
-22.49999999999997
 30
0.0
 40
1.5
100
AcDbArc
 50
270.0
 51
90.0
  0
LINE
  5
520
330
4A9
100
AcDbEntity
  8
0
  6
DASHED
 62
     2
100
AcDbLine
 10
7.335972914607943
 20
-19.99999999999997
 30
0.0
 11
7.335972914607943
 21
-24.99999999999997
 31
0.0
  0
LINE
  5
521
330
4A9
100
AcDbEntity
  8
0
  6
DASHED
 62
     2
100
AcDbLine
 10
6.335972914607943
 20
-19.99999999999997
 30
0.0
 11
6.335972914607943
 21
-24.99999999999997
 31
0.0
  0
LINE
  5
522
330
4A9
100
AcDbEntity
  8
0
  6
DASHED
 62
     2
100
AcDbLine
 10
3.835972914607942
 20
-22.49999999999997
 30
0.0
 11
9.835972914607943
 21
-22.49999999999997
 31
0.0
  0
LINE
  5
523
330
4A9
100
AcDbEntity
  8
0
  6
DASHED
 62
     2
100
AcDbLine
 10
-63.16402708539198
 20
-24.99999999999997
 30
0.0
 11
-63.16402708539198
 21
-19.99999999999997
 31
0.0
  0
LINE
  5
524
330
4A9
100
AcDbEntity
  8
0
  6
DASHED
 62
     2
100
AcDbLine
 10
-60.66402708539198
 20
-22.49999999999997
 30
0.0
 11
-65.66402708539198
 21
-22.49999999999997
 31
0.0
  0
CIRCLE
  5
525
330
4A9
100
AcDbEntity
  8
0
  6
DASHED
 62
     2
100
AcDbCircle
 10
-63.16402708539198
 20
-22.49999999999997
 30
0.0
 40
1.5
  0
CIRCLE
  5
526
330
4A9
100
AcDbEntity
  8
0
  6
Continuous
 62
     2
100
AcDbCircle
 10
-59.66402708539187
 20
-29.99999999999997
 30
0.0
 40
1.5
  0
CIRCLE
  5
527
330
4A9
100
AcDbEntity
  8
0
  6
Continuous
 62
     7
100
AcDbCircle
 10
-59.66402708539187
 20
-45.99999999999996
 30
0.0
 40
1.25
  0
CIRCLE
  5
528
330
4A9
100
AcDbEntity
  8
0
  6
Continuous
 62
     2
100
AcDbCircle
 10
-59.66402708539187
 20
-45.99999999999996
 30
0.0
 40
1.5
  0
CIRCLE
  5
529
330
4A9
100
AcDbEntity
  8
0
  6
Continuous
 62
     7
100
AcDbCircle
 10
-37.66402708539188
 20
-29.99999999999997
 30
0.0
 40
1.25
  0
CIRCLE
  5
52A
330
4A9
100
AcDbEntity
  8
0
  6
Continuous
 62
     2
100
AcDbCircle
 10
-37.66402708539188
 20
-29.99999999999997
 30
0.0
 40
1.5
  0
CIRCLE
  5
52B
330
4A9
100
AcDbEntity
  8
0
  6
Continuous
 62
     7
100
AcDbCircle
 10
-37.66402708539188
 20
-45.99999999999996
 30
0.0
 40
1.25
  0
CIRCLE
  5
52C
330
4A9
100
AcDbEntity
  8
0
  6
Continuous
 62
     2
100
AcDbCircle
 10
-37.66402708539188
 20
-45.99999999999996
 30
0.0
 40
1.5
  0
INSERT
  5
52D
330
4A9
100
AcDbEntity
  8
0
  6
Continuous
100
AcDbBlockReference
  2
MS_1
 10
-0.1640270853918784
 20
-0.0330273128353724
 30
0.0
  0
ENDBLK
  5
4AB
330
4A9
100
AcDbEntity
  8
0
100
AcDbBlockEnd
  0
BLOCK
  5
533
330
532
100
AcDbEntity
  8
0
100
AcDbBlockBegin
  2
MS_3
 70
     0
 10
0.0
 20
0.0
 30
0.0
  3
MS_3
  1

  0
LINE
  5
535
330
532
100
AcDbEntity
  8
0
  6
Continuous
 62
     2
100
AcDbLine
 10
-103.7877246387025
 20
16.0
 30
0.0
 11
-69.61871162905953
 21
16.0
 31
0.0
  0
LINE
  5
536
330
532
100
AcDbEntity
  8
0
  6
Continuous
 62
     7
100
AcDbLine
 10
-94.95673764834544
 20
18.50000000000003
 30
0.0
 11
-75.99999999999933
 21
18.50000000000005
 31
0.0
  0
LINE
  5
537
330
532
100
AcDbEntity
  8
0
  6
Continuous
 62
     7
100
AcDbLine
 10
17.00000000000067
 20
29.0
 30
0.0
 11
17.00000000000067
 21
0.0
 31
0.0
  0
LINE
  5
538
330
532
100
AcDbEntity
  8
0
  6
Continuous
 62
     7
100
AcDbLine
 10
-72.99999999999933
 20
0.0
 30
0.0
 11
-72.99999999999933
 21
29.0
 31
0.0
  0
LINE
  5
539
330
532
100
AcDbEntity
  8
0
  6
Continuous
 62
     7
100
AcDbLine
 10
-69.4999999999993
 20
8.5
 30
0.0
 11
-69.4999999999993
 21
0.0
 31
0.0
  0
LINE
  5
53A
330
532
100
AcDbEntity
  8
0
  6
Continuous
 62
     7
100
AcDbLine
 10
13.50000000000067
 20
8.5
 30
0.0
 11
13.50000000000067
 21
0.0
 31
0.0
  0
ARC
  5
53B
330
532
100
AcDbEntity
  8
0
  6
Continuous
 62
     7
100
AcDbCircle
 10
-75.39999999999932
 20
20.89999999999999
 30
0.0
 40
0.6
100
AcDbArc
 50
90.0
 51
180.0
  0
LINE
  5
53C
330
532
100
AcDbEntity
  8
0
  6
Continuous
 62
     7
100
AcDbLine
 10
-75.39999999999932
 20
21.5
 30
0.0
 11
-72.99999999999936
 21
21.5
 31
0.0
  0
LINE
  5
53D
330
532
100
AcDbEntity
  8
0
  6
Continuous
 62
     7
100
AcDbLine
 10
-65.49999999999933
 20
22.0
 30
0.0
 11
-65.49999999999933
 21
17.0
 31
0.0
  0
LINE
  5
53E
330
532
100
AcDbEntity
  8
0
  6
Continuous
 62
     2
100
AcDbLine
 10
-37.49999999999931
 20
20.0
 30
0.0
 11
-37.49999999999931
 21
24.0
 31
0.0
  0
LINE
  5
53F
330
532
100
AcDbEntity
  8
0
  6
Continuous
 62
     2
100
AcDbLine
 10
-39.49999999999931
 20
22.0
 30
0.0
 11
-35.4999999999993
 21
22.0
 31
0.0
  0
LINE
  5
540
330
532
100
AcDbEntity
  8
0
  6
Continuous
 62
     2
100
AcDbLine
 10
-59.49999999999931
 20
20.0
 30
0.0
 11
-59.49999999999931
 21
24.0
 31
0.0
  0
LINE
  5
541
330
532
100
AcDbEntity
  8
0
  6
Continuous
 62
     2
100
AcDbLine
 10
-61.49999999999931
 20
22.0
 30
0.0
 11
-57.49999999999931
 21
22.0
 31
0.0
  0
LINE
  5
542
330
532
100
AcDbEntity
  8
0
  6
Continuous
 62
     7
100
AcDbLine
 10
16.00000000000067
 20
17.0
 30
0.0
 11
16.00000000000067
 21
8.5
 31
0.0
  0
LINE
  5
543
330
532
100
AcDbEntity
  8
0
  6
Continuous
 62
     7
100
AcDbLine
 10
-65.49999999999933
 20
22.0
 30
0.0
 11
-63.9999999999993
 21
22.0
 31
0.0
  0
LINE
  5
544
330
532
100
AcDbEntity
  8
0
  6
Continuous
 62
     7
100
AcDbLine
 10
-71.9999999999993
 20
17.0
 30
0.0
 11
-63.9999999999993
 21
17.0
 31
0.0
  0
LINE
  5
545
330
532
100
AcDbEntity
  8
0
  6
Continuous
 62
     7
100
AcDbLine
 10
9.500000000000671
 20
22.0
 30
0.0
 11
9.500000000000671
 21
17.0
 31
0.0
  0
LINE
  5
546
330
532
100
AcDbEntity
  8
0
  6
Continuous
 62
     7
100
AcDbLine
 10
16.00000000000067
 20
15.0
 30
0.0
 11
16.50000000000067
 21
15.0
 31
0.0
  0
LINE
  5
547
330
532
100
AcDbEntity
  8
0
  6
Continuous
 62
     7
100
AcDbLine
 10
-32.99999999999932
 20
17.0
 30
0.0
 11
16.00000000000067
 21
17.0
 31
0.0
  0
LINE
  5
548
330
532
100
AcDbEntity
  8
0
  6
Continuous
 62
     7
100
AcDbLine
 10
-32.99999999999932
 20
22.0
 30
0.0
 11
9.500000000000671
 21
22.0
 31
0.0
  0
LINE
  5
549
330
532
100
AcDbEntity
  8
0
  6
Continuous
 62
     7
100
AcDbLine
 10
-38.39999999999941
 20
11.0
 30
0.0
 11
-38.39999999999941
 21
9.0
 31
0.0
  0
LINE
  5
54A
330
532
100
AcDbEntity
  8
0
  6
Continuous
 62
     7
100
AcDbLine
 10
-39.74999999999932
 20
11.4330126643181
 30
0.0
 11
-40.50000005960395
 21
11.86602541804314
 31
0.0
  0
LINE
  5
54B
330
532
100
AcDbEntity
  8
0
  6
Continuous
 62
     7
100
AcDbLine
 10
-40.50000003253955
 20
10.13397461500261
 30
0.0
 11
-39.74999995784868
 21
10.56698734259755
 31
0.0
  0
LINE
  5
54C
330
532
100
AcDbEntity
  8
0
  6
Continuous
 62
     7
100
AcDbLine
 10
-39.75000003253954
 20
10.5669872793207
 30
0.0
 11
-39.7500000174533
 21
11.43301276064068
 31
0.0
  0
LINE
  5
54D
330
532
100
AcDbEntity
  8
0
  6
Continuous
 62
     7
100
AcDbLine
 10
-25.49999999999926
 20
12.0
 30
0.0
 11
-32.99999999999926
 21
12.0
 31
0.0
  0
LINE
  5
54E
330
532
100
AcDbEntity
  8
0
  6
Continuous
 62
     7
100
AcDbLine
 10
-25.49999999999926
 20
12.0
 30
0.0
 11
-25.49999999999926
 21
9.0
 31
0.0
  0
LINE
  5
54F
330
532
100
AcDbEntity
  8
0
  6
Continuous
 62
     7
100
AcDbLine
 10
-26.49999999999926
 20
12.0
 30
0.0
 11
-26.49999999999926
 21
9.0
 31
0.0
  0
LINE
  5
550
330
532
100
AcDbEntity
  8
0
  6
Continuous
 62
     7
100
AcDbLine
 10
-20.49999999999926
 20
13.0
 30
0.0
 11
-20.49999999999926
 21
8.5
 31
0.0
  0
LINE
  5
551
330
532
100
AcDbEntity
  8
0
  6
Continuous
 62
     7
100
AcDbLine
 10
4.500000000000673
 20
13.0
 30
0.0
 11
-32.99999999999932
 21
13.0
 31
0.0
  0
LINE
  5
552
330
532
100
AcDbEntity
  8
0
  6
Continuous
 62
     7
100
AcDbLine
 10
4.500000000000673
 20
13.0
 30
0.0
 11
4.500000000000673
 21
8.5
 31
0.0
  0
ARC
  5
553
330
532
100
AcDbEntity
  8
0
  6
Continuous
 62
     7
100
AcDbCircle
 10
-75.39999999999932
 20
11.10000000000003
 30
0.0
 40
0.6
100
AcDbArc
 50
180.0
 51
270.0
  0
LINE
  5
554
330
532
100
AcDbEntity
  8
0
  6
Continuous
 62
     7
100
AcDbLine
 10
-75.39999999999932
 20
10.5
 30
0.0
 11
-72.99999999999936
 21
10.5
 31
0.0
  0
LINE
  5
555
330
532
100
AcDbEntity
  8
0
  6
Continuous
 62
     7
100
AcDbLine
 10
-71.9999999999993
 20
15.0
 30
0.0
 11
-72.4999999999993
 21
15.0
 31
0.0
  0
LINE
  5
556
330
532
100
AcDbEntity
  8
0
  6
Continuous
 62
     7
100
AcDbLine
 10
-58.59999999999933
 20
11.0
 30
0.0
 11
-58.59999999999933
 21
9.0
 31
0.0
  0
LINE
  5
557
330
532
100
AcDbEntity
  8
0
  6
Continuous
 62
     7
100
AcDbLine
 10
-54.39999999999939
 20
11.0
 30
0.0
 11
-54.39999999999939
 21
9.0
 31
0.0
  0
LINE
  5
558
330
532
100
AcDbEntity
  8
0
  6
Continuous
 62
     7
100
AcDbLine
 10
-42.59999999999932
 20
11.0
 30
0.0
 11
-42.59999999999932
 21
9.0
 31
0.0
  0
CIRCLE
  5
559
330
532
100
AcDbEntity
  8
0
  6
Continuous
 62
     7
100
AcDbCircle
 10
-56.49999999999931
 20
11.0
 30
0.0
 40
1.9
  0
LINE
  5
55A
330
532
100
AcDbEntity
  8
0
  6
Continuous
 62
     7
100
AcDbLine
 10
-57.24999996745918
 20
11.43301272067931
 30
0.0
 11
-57.24999998254542
 21
10.56698723935928
 31
0.0
  0
LINE
  5
55B
330
532
100
AcDbEntity
  8
0
  6
Continuous
 62
     7
100
AcDbLine
 10
-56.49999996745917
 20
11.86602538499738
 30
0.0
 11
-57.25000004215007
 21
11.4330126574024
 31
0.0
  0
LINE
  5
55C
330
532
100
AcDbEntity
  8
0
  6
Continuous
 62
     7
100
AcDbLine
 10
-57.24999999999933
 20
10.5669873356819
 30
0.0
 11
-56.49999994039466
 21
10.13397458195686
 31
0.0
  0
LINE
  5
55D
330
532
100
AcDbEntity
  8
0
  6
Continuous
 62
     7
100
AcDbLine
 10
-55.75000003253955
 20
10.5669872793207
 30
0.0
 11
-55.75000001745332
 21
11.43301276064068
 31
0.0
  0
LINE
  5
55E
330
532
100
AcDbEntity
  8
0
  6
Continuous
 62
     7
100
AcDbLine
 10
-55.74999999999931
 20
11.4330126643181
 30
0.0
 11
-56.50000005960396
 21
11.86602541804314
 31
0.0
  0
LINE
  5
55F
330
532
100
AcDbEntity
  8
0
  6
Continuous
 62
     7
100
AcDbLine
 10
-56.50000003253955
 20
10.13397461500261
 30
0.0
 11
-55.74999995784867
 21
10.56698734259755
 31
0.0
  0
ARC
  5
560
330
532
100
AcDbEntity
  8
0
  6
Continuous
 62
     7
100
AcDbCircle
 10
-56.49999999999931
 20
11.0
 30
0.0
 40
2.1
100
AcDbArc
 50
0.0
 51
180.0
  0
LINE
  5
561
330
532
100
AcDbEntity
  8
0
  6
Continuous
 62
     7
100
AcDbLine
 10
-41.24999996745918
 20
11.43301272067931
 30
0.0
 11
-41.24999998254541
 21
10.56698723935928
 31
0.0
  0
LINE
  5
562
330
532
100
AcDbEntity
  8
0
  6
Continuous
 62
     7
100
AcDbLine
 10
-41.24999999999931
 20
10.5669873356819
 30
0.0
 11
-40.49999994039466
 21
10.13397458195686
 31
0.0
  0
LINE
  5
563
330
532
100
AcDbEntity
  8
0
  6
Continuous
 62
     7
100
AcDbLine
 10
-40.49999996745918
 20
11.86602538499738
 30
0.0
 11
-41.25000004215006
 21
11.4330126574024
 31
0.0
  0
ARC
  5
564
330
532
100
AcDbEntity
  8
0
  6
Continuous
 62
     7
100
AcDbCircle
 10
-40.49999999999931
 20
11.0
 30
0.0
 40
2.1
100
AcDbArc
 50
0.0
 51
180.0
  0
CIRCLE
  5
565
330
532
100
AcDbEntity
  8
0
  6
Continuous
 62
     7
100
AcDbCircle
 10
-40.49999999999931
 20
11.0
 30
0.0
 40
1.9
  0
LINE
  5
566
330
532
100
AcDbEntity
  8
0
  6
Continuous
 62
     7
100
AcDbLine
 10
-63.9999999999993
 20
9.0
 30
0.0
 11
-25.49999999999926
 21
9.0
 31
0.0
  0
LINE
  5
567
330
532
100
AcDbEntity
  8
0
  6
Continuous
 62
     7
100
AcDbLine
 10
17.00000000000067
 20
8.5
 30
0.0
 11
-72.99999999999933
 21
8.5
 31
0.0
  0
LINE
  5
568
330
532
100
AcDbEntity
  8
0
  6
Continuous
 62
     7
100
AcDbLine
 10
-71.9999999999993
 20
17.0
 30
0.0
 11
-71.9999999999993
 21
8.5
 31
0.0
  0
LINE
  5
569
330
532
100
AcDbEntity
  8
0
  6
Continuous
 62
     7
100
AcDbLine
 10
-75.99999999999933
 20
11.10000000000003
 30
0.0
 11
-75.99999999999933
 21
20.89999999999999
 31
0.0
  0
LINE
  5
56A
330
532
100
AcDbEntity
  8
0
  6
Continuous
 62
     7
100
AcDbLine
 10
-94.95673764834544
 20
13.49999999999997
 30
0.0
 11
-75.99999999999933
 21
13.5
 31
0.0
  0
LINE
  5
56B
330
532
100
AcDbEntity
  8
0
  6
Continuous
 62
     7
100
AcDbLine
 10
-72.99999999999933
 20
29.0
 30
0.0
 11
-63.9999999999993
 21
29.0
 31
0.0
  0
LINE
  5
56C
330
532
100
AcDbEntity
  8
0
  6
Continuous
 62
     7
100
AcDbLine
 10
-63.9999999999993
 20
30.0
 30
0.0
 11
-32.99999999999932
 21
30.0
 31
0.0
  0
LINE
  5
56D
330
532
100
AcDbEntity
  8
0
  6
Continuous
 62
     7
100
AcDbLine
 10
-32.99999999999932
 20
29.0
 30
0.0
 11
17.00000000000067
 21
29.0
 31
0.0
  0
LINE
  5
56E
330
532
100
AcDbEntity
  8
0
  6
Continuous
 62
     7
100
AcDbLine
 10
-63.9999999999993
 20
28.0
 30
0.0
 11
-32.99999999999932
 21
28.0
 31
0.0
  0
LINE
  5
56F
330
532
100
AcDbEntity
  8
0
  6
Continuous
 62
     7
100
AcDbLine
 10
-32.99999999999932
 20
30.0
 30
0.0
 11
-32.99999999999932
 21
9.0
 31
0.0
  0
LINE
  5
570
330
532
100
AcDbEntity
  8
0
  6
Continuous
 62
     7
100
AcDbLine
 10
-63.9999999999993
 20
30.0
 30
0.0
 11
-63.9999999999993
 21
9.0
 31
0.0
  0
LINE
  5
571
330
532
100
AcDbEntity
  8
0
  6
Continuous
 62
     7
100
AcDbLine
 10
-72.4999999999993
 20
29.0
 30
0.0
 11
-72.4999999999993
 21
8.5
 31
0.0
  0
LINE
  5
572
330
532
100
AcDbEntity
  8
0
  6
Continuous
 62
     7
100
AcDbLine
 10
16.50000000000067
 20
29.0
 30
0.0
 11
16.50000000000067
 21
8.5
 31
0.0
  0
LINE
  5
573
330
532
100
AcDbEntity
  8
0
  6
Continuous
 62
     7
100
AcDbLine
 10
17.00000000000067
 20
0.0
 30
0.0
 11
-72.99999999999933
 21
0.0
 31
0.0
  0
LINE
  5
574
330
532
100
AcDbEntity
  8
0
  6
Continuous
 62
     2
100
AcDbLine
 10
-62.99999999999942
 20
-3.0
 30
0.0
 11
-62.99999999999942
 21
3.0
 31
0.0
  0
LINE
  5
575
330
532
100
AcDbEntity
  8
0
  6
Continuous
 62
     2
100
AcDbLine
 10
-0.000000000000095
 20
11.5
 30
0.0
 11
0.0000000000000249
 21
-2.999999999999118
 31
0.0
  0
LINE
  5
576
330
532
100
AcDbEntity
  8
0
  6
Continuous
 62
     2
100
AcDbLine
 10
-55.99999999999946
 20
11.49999999999921
 30
0.0
 11
-55.99999999999924
 21
-2.9999999999999
 31
0.0
  0
CIRCLE
  5
577
330
532
100
AcDbEntity
  8
0
  6
Continuous
 62
     7
100
AcDbCircle
 10
-59.49999999999931
 20
22.0
 30
0.0
 40
1.25
  0
CIRCLE
  5
578
330
532
100
AcDbEntity
  8
0
  6
Continuous
 62
     2
100
AcDbCircle
 10
-59.49999999999931
 20
22.0
 30
0.0
 40
1.5
  0
CIRCLE
  5
579
330
532
100
AcDbEntity
  8
0
  6
Continuous
 62
     7
100
AcDbCircle
 10
-37.49999999999931
 20
22.0
 30
0.0
 40
1.25
  0
CIRCLE
  5
57A
330
532
100
AcDbEntity
  8
0
  6
Continuous
 62
     2
100
AcDbCircle
 10
-37.49999999999931
 20
22.0
 30
0.0
 40
1.5
  0
ENDBLK
  5
534
330
532
100
AcDbEntity
  8
0
100
AcDbBlockEnd
  0
ENDSEC
  0
SECTION
  2
ENTITIES
  0
INSERT
  5
152
330
A
100
AcDbEntity
  8
0
  6
ByBlock
100
AcDbBlockReference
  2
MS_2
 10
100.0000000000001
 20
40.0
 30
0.0
  0
MTEXT
  5
154
330
A
100
AcDbEntity
  8
0
  6
Continuous
 62
     7
100
AcDbMText
 10
-171.2636322297537
 20
121.3500061035156
 30
0.0
 40
4.5
 41
0.0
 71
     4
 72
     5
  1
{\W0.982;EWM5SSA-40}
 73
     1
 44
1.0
1001
ACAD
1000
ACAD_MTEXT_DEFINED_HEIGHT_BEGIN
1070
    46
1040
0.0
1000
ACAD_MTEXT_DEFINED_HEIGHT_END
1000
MTEXTBEGIN
1070
    73
1070
     1
1070
    44
1040
1.0
1070
    74
1070
     0
1000
MTEXTEND
  0
MTEXT
  5
155
330
A
100
AcDbEntity
  8
0
  6
Continuous
 62
     7
100
AcDbMText
 10
-169.0241898944859
 20
128.8500061035156
 30
0.0
 40
4.5
 41
0.0
 71
     4
 72
     5
  1
\W0.968;\A1;ELE WAVE
 73
     1
 44
1.0
1001
ACAD
1000
MTEXTBEGIN
1070
    73
1070
     1
1070
    44
1040
1.0
1070
    74
1070
     0
1000
MTEXTEND
  0
LINE
  5
156
330
A
100
AcDbEntity
  8
0
  6
Continuous
 62
     7
100
AcDbLine
 10
109.8000030517578
 20
-118.5
 30
0.0
 11
109.8000030517578
 21
-133.5
 31
0.0
  0
LINE
  5
157
330
A
100
AcDbEntity
  8
0
  6
Continuous
 62
     7
100
AcDbLine
 10
109.8000030517578
 20
-118.5
 30
0.0
 11
194.8000030517578
 21
-118.5
 31
0.0
  0
MTEXT
  5
158
330
A
100
AcDbEntity
  8
0
  6
Continuous
 62
     7
100
AcDbMText
 10
115.5267259825148
 20
-126.0
 30
0.0
 40
6.300000190734862
 41
0.0
 71
     4
 72
     5
  1
\W1.121;\A1;KOGANEI CORP.
 73
     1
 44
1.0
1001
ACAD
1000
MTEXTBEGIN
1070
    73
1070
     1
1070
    44
1040
1.0
1070
    74
1070
     0
1000
MTEXTEND
  0
MTEXT
  5
159
330
A
100
AcDbEntity
  8
0
  6
Continuous
 62
     7
100
AcDbMText
 10
-185.7241379326291
 20
107.6000061035156
 30
0.0
 40
4.5
 41
0.0
 71
     4
 72
     5
  1
{\W1.034;MODEL:EWM5SSA-40}
 73
     1
 44
1.0
1001
ACAD
1000
ACAD_MTEXT_DEFINED_HEIGHT_BEGIN
1070
    46
1040
0.0
1000
ACAD_MTEXT_DEFINED_HEIGHT_END
1000
MTEXTBEGIN
1070
    73
1070
     1
1070
    44
1040
1.0
1070
    74
1070
     0
1000
MTEXTEND
  0
LINE
  5
15A
330
A
100
AcDbEntity
  8
0
  6
Continuous
 62
     7
100
AcDbLine
 10
-194.25
 20
117.6000061035155
 30
0.0
 11
-109.25
 21
117.6000061035155
 31
0.0
  0
LINE
  5
15B
330
A
100
AcDbEntity
  8
0
  6
Continuous
 62
     7
100
AcDbLine
 10
-109.25
 20
132.6000061035156
 30
0.0
 11
-109.25
 21
117.6000061035155
 31
0.0
  0
LINE
  5
15C
330
A
100
AcDbEntity
  8
0
  6
Continuous
 62
     7
100
AcDbLine
 10
109.8000030517578
 20
132.6000061035156
 30
0.0
 11
109.8000030517578
 21
117.6000061035155
 31
0.0
  0
LINE
  5
15D
330
A
100
AcDbEntity
  8
0
  6
Continuous
 62
     7
100
AcDbLine
 10
109.8000030517578
 20
117.6000061035155
 30
0.0
 11
194.8000030517578
 21
117.6000061035155
 31
0.0
  0
MTEXT
  5
15E
330
A
100
AcDbEntity
  8
0
  6
Continuous
 62
     7
100
AcDbMText
 10
135.2836132057677
 20
125.1000061035156
 30
0.0
 40
4.5
 41
0.0
 71
     4
 72
     5
  1
{\W1.311;Ver. 1.0}
 73
     1
 44
1.0
1001
ACAD
1000
ACAD_MTEXT_DEFINED_HEIGHT_BEGIN
1070
    46
1040
0.0
1000
ACAD_MTEXT_DEFINED_HEIGHT_END
1000
MTEXTBEGIN
1070
    73
1070
     1
1070
    44
1040
1.0
1070
    74
1070
     0
1000
MTEXTEND
  0
LINE
  5
15F
330
A
100
AcDbEntity
  8
0
  6
Continuous
 62
     7
100
AcDbLine
 10
-194.25
 20
132.6000061035156
 30
0.0
 11
194.8000030517578
 21
132.6000061035156
 31
0.0
  0
LINE
  5
160
330
A
100
AcDbEntity
  8
0
  6
Continuous
 62
     7
100
AcDbLine
 10
194.8000030517578
 20
132.6000061035156
 30
0.0
 11
194.8000030517578
 21
-133.5
 31
0.0
  0
LINE
  5
161
330
A
100
AcDbEntity
  8
0
  6
Continuous
 62
     7
100
AcDbLine
 10
-194.25
 20
132.6000061035156
 30
0.0
 11
-194.25
 21
-133.5
 31
0.0
  0
LINE
  5
162
330
A
100
AcDbEntity
  8
0
  6
Continuous
 62
     7
100
AcDbLine
 10
-194.25
 20
-133.5
 30
0.0
 11
194.8000030517578
 21
-133.5
 31
0.0
  0
INSERT
  5
52E
330
A
100
AcDbEntity
  8
0
  6
Continuous
100
AcDbBlockReference
  2
MSA_1
 10
-6.835972914608014
 20
62.49999999999997
 30
0.0
  0
INSERT
  5
57B
330
A
100
AcDbEntity
  8
0
  6
Continuous
100
AcDbBlockReference
  2
MS_3
 10
-7.000000000000572
 20
-70.0
 30
0.0
  0
ENDSEC
  0
SECTION
  2
OBJECTS
  0
DICTIONARY
  5
19
330
0
100
AcDbDictionary
281
     1
  3
ACAD_COLOR
350
16B
  3
ACAD_GROUP
350
1A
  3
ACAD_LAYOUT
350
16E
  3
ACAD_MATERIAL
350
16A
  3
ACAD_MLINESTYLE
350
1B
  3
ACAD_PLOTSETTINGS
350
16F
  3
ACAD_PLOTSTYLENAME
350
168
  3
ACAD_TABLESTYLE
350
16C
  3
ACDBHEADERROUNDTRIPXREC
350
585
  3
AcDbVariableDictionary
350
289
  3
DWGPROPS
350
584
  0
DICTIONARY
  5
218
330
A
100
AcDbDictionary
280
     1
281
     1
  3
ACAD_SORTENTS
360
219
  0
DICTIONARY
  5
16B
102
{ACAD_REACTORS
330
19
102
}
330
19
100
AcDbDictionary
281
     1
  0
DICTIONARY
  5
1A
102
{ACAD_REACTORS
330
19
102
}
330
19
100
AcDbDictionary
281
     1
  0
DICTIONARY
  5
16E
102
{ACAD_REACTORS
330
19
102
}
330
19
100
AcDbDictionary
281
     1
  3
Model
350
170
  3
レイアウト1
350
171
  0
DICTIONARY
  5
16A
102
{ACAD_REACTORS
330
19
102
}
330
19
100
AcDbDictionary
281
     1
  0
DICTIONARY
  5
1B
102
{ACAD_REACTORS
330
19
102
}
330
19
100
AcDbDictionary
281
     1
  3
STANDARD
350
1C
  0
DICTIONARY
  5
16F
102
{ACAD_REACTORS
330
19
102
}
330
19
100
AcDbDictionary
281
     1
  0
ACDBDICTIONARYWDFLT
  5
168
102
{ACAD_REACTORS
330
19
102
}
330
19
100
AcDbDictionary
281
     1
  3
Normal
350
169
100
AcDbDictionaryWithDefault
340
169
  0
DICTIONARY
  5
16C
102
{ACAD_REACTORS
330
19
102
}
330
19
100
AcDbDictionary
281
     1
  3
Standard
350
16D
  0
DICTIONARY
  5
585
102
{ACAD_REACTORS
330
19
102
}
330
19
100
AcDbDictionary
281
     1
  0
DICTIONARY
  5
289
102
{ACAD_REACTORS
330
19
102
}
330
19
100
AcDbDictionary
281
     1
  3
CTABLESTYLE
350
28A
  3
DIMASSOC
350
28B
  3
PROJECTNAME
350
28C
  0
XRECORD
  5
584
102
{ACAD_REACTORS
330
19
102
}
330
19
100
AcDbXrecord
280
     1
  1
DWGPROPS COOKIE
  2

  3

  4

  6

  7

  8

  9

300
=
301
=
302
=
303
=
304
=
305
=
306
=
307
=
308
=
309
=
 40
0.0168153009259259
 41
2453984.744699074
 42
2454495.713021597
  1

 90
        0
  0
SORTENTSTABLE
  5
219
102
{ACAD_REACTORS
330
218
102
}
330
218
100
AcDbSortentsTable
330
A
331
157
  5
26A
331
15C
  5
26F
331
15A
  5
26D
331
155
  5
268
331
158
  5
26B
331
161
  5
274
331
15F
  5
272
331
15D
  5
270
331
156
  5
269
331
15B
  5
26E
331
159
  5
26C
331
154
  5
267
331
152
  5
1C1
331
162
  5
275
331
160
  5
273
331
15E
  5
271
  0
LAYOUT
  5
170
102
{ACAD_XDICTIONARY
360
586
102
}
102
{ACAD_REACTORS
330
16E
102
}
330
16E
100
AcDbPlotSettings
  1

  2
DocuCentre Color f450
  4

  6

 40
0.0
 41
0.0
 42
0.0
 43
0.0
 44
0.0
 45
0.0
 46
0.0
 47
0.0
 48
0.0
 49
0.0
140
0.0
141
0.0
142
1.0
143
1.0
 70
  1712
 72
     0
 73
     0
 74
     0
  7

 75
     0
147
1.0
148
0.0
149
0.0
100
AcDbLayout
  1
Model
 70
     1
 71
     0
 10
0.0
 20
0.0
 11
12.0
 21
9.0
 12
0.0
 22
0.0
 32
0.0
 14
0.0
 24
0.0
 34
0.0
 15
0.0
 25
0.0
 35
0.0
146
0.0
 13
0.0
 23
0.0
 33
0.0
 16
1.0
 26
0.0
 36
0.0
 17
0.0
 27
1.0
 37
0.0
 76
     0
330
A
  0
LAYOUT
  5
171
102
{ACAD_XDICTIONARY
360
588
102
}
102
{ACAD_REACTORS
330
16E
102
}
330
16E
100
AcDbPlotSettings
  1

  2
DocuCentre Color f450
  4

  6

 40
0.0
 41
0.0
 42
0.0
 43
0.0
 44
0.0
 45
0.0
 46
0.0
 47
0.0
 48
0.0
 49
0.0
140
0.0
141
0.0
142
1.0
143
1.0
 70
   688
 72
     0
 73
     0
 74
     5
  7

 75
    16
147
1.0
148
0.0
149
0.0
100
AcDbLayout
  1
レイアウト1
 70
     0
 71
     1
 10
0.0
 20
0.0
 11
12.0
 21
9.0
 12
0.0
 22
0.0
 32
0.0
 14
1.000000000000000E+20
 24
1.000000000000000E+20
 34
1.000000000000000E+20
 15
-1.000000000000000E+20
 25
-1.000000000000000E+20
 35
-1.000000000000000E+20
146
0.0
 13
0.0
 23
0.0
 33
0.0
 16
1.0
 26
0.0
 36
0.0
 17
0.0
 27
1.0
 37
0.0
 76
     0
330
B
  0
MLINESTYLE
  5
1C
102
{ACAD_REACTORS
330
1B
102
}
330
1B
100
AcDbMlineStyle
  2
STANDARD
 70
     0
  3

 62
     0
 51
90.0
 52
90.0
 71
     2
 49
0.5
 62
   256
  6
BYLAYER
 49
-0.5
 62
   256
  6
BYLAYER
  0
ACDBPLACEHOLDER
  5
169
102
{ACAD_REACTORS
330
168
102
}
330
168
  0
TABLESTYLE
  5
16D
102
{ACAD_REACTORS
330
16C
102
}
330
16C
100
AcDbTableStyle
  3
Standard
 70
     0
 71
     0
 40
0.06
 41
0.06
280
     0
281
     0
  7
MX_NOTE_STANDARD
140
0.18
170
     2
 62
     0
 63
     7
283
     0
274
    -2
284
     1
 64
     0
275
    -2
285
     1
 65
     0
276
    -2
286
     1
 66
     0
277
    -2
287
     1
 67
     0
278
    -2
288
     1
 68
     0
279
    -2
289
     1
 69
     0
  7
MX_NOTE_STANDARD
140
0.25
170
     5
 62
     0
 63
     7
283
     0
274
    -2
284
     1
 64
     0
275
    -2
285
     1
 65
     0
276
    -2
286
     1
 66
     0
277
    -2
287
     1
 67
     0
278
    -2
288
     1
 68
     0
279
    -2
289
     1
 69
     0
  7
MX_NOTE_STANDARD
140
0.18
170
     5
 62
     0
 63
     7
283
     0
274
    -2
284
     1
 64
     0
275
    -2
285
     1
 65
     0
276
    -2
286
     1
 66
     0
277
    -2
287
     1
 67
     0
278
    -2
288
     1
 68
     0
279
    -2
289
     1
 69
     0
  0
DICTIONARYVAR
  5
28A
102
{ACAD_REACTORS
330
289
102
}
330
289
100
DictionaryVariables
280
     0
  1
STANDARD
  0
DICTIONARYVAR
  5
28B
102
{ACAD_REACTORS
330
289
102
}
330
289
100
DictionaryVariables
280
     0
  1
1
  0
DICTIONARYVAR
  5
28C
102
{ACAD_REACTORS
330
289
102
}
330
289
100
DictionaryVariables
280
     0
  1

  0
DICTIONARY
  5
586
330
170
100
AcDbDictionary
280
     1
281
     1
  3
ACAD_XREC_ROUNDTRIP
360
587
  0
DICTIONARY
  5
588
330
171
100
AcDbDictionary
280
     1
281
     1
  3
ACAD_XREC_ROUNDTRIP
360
589
  0
XRECORD
  5
587
102
{ACAD_REACTORS
330
586
102
}
330
586
100
AcDbXrecord
280
     1
102
SHADEPLOT
 70
     0
102
SHADEPLOTRESLEVEL
 70
     2
102
SHADEPLOTCUSTOMDPI
 70
   300
  0
XRECORD
  5
589
102
{ACAD_REACTORS
330
588
102
}
330
588
100
AcDbXrecord
280
     1
102
SHADEPLOT
 70
     0
102
SHADEPLOTRESLEVEL
 70
     2
102
SHADEPLOTCUSTOMDPI
 70
   300
  0
ENDSEC
  0
EOF
