  0
SECTION
  2
HEADER
  9
$ACADVER
  1
AC1003
  9
$EXTMIN
 10
-2.81250000E+02
 20
-1.95000000E+02
  9
$EXTMAX
 10
2.82099854E+02
 20
1.95500000E+02
  9
$LIMMIN
 10
-2.81251000E+02
 20
-1.95001000E+02
  9
$LIMMAX
 10
2.82100854E+02
 20
1.95501000E+02
  9
$SNAPUNIT
 10
1
 20
1
  9
$SNAPBASE
 10
0
 20
0
  9
$GRIDMODE
 70
0
  9
$GRIDUNIT
 10
0
 20
0
  9
$LTSCALE
 40
9.38916423E+00
  9
$TEXTSIZE
 40
3.2
  9
$DIMTAD
 70
0
  9
$LUNITS
 70
2
  9
$LUPREC
 70
4
  9
$FILLETRAD
 40
0
  9
$AUNITS
 70
0
  9
$AUPREC
 70
0
  0
ENDSEC
  0
SECTION
  2
TABLES
  0
TABLE
  2
LTYPE
 70
2
  0
LTYPE
  2
CONTINUOUS
 70
64
  3
Solid-Line
 72
65
 73
0
 40
0
  0
LTYPE
  2
DASHED
 70
64
  3
DASHED
 72
65
 73
2
 40
.75
 49
.5
 49
-.25
  0
LTYPE
  2
HIDDEN
 70
64
  3
HIDDEN
 72
65
 73
2
 40
.375
 49
.25
 49
-.125
  0
LTYPE
  2
CENTER
 70
64
  3
CENTER
 72
65
 73
4
 40
2
 49
1.25
 49
-.25
 49
.25
 49
-.25
  0
LTYPE
  2
PHANTOM
 70
64
  3
PHANTOM
 72
65
 73
6
 40
2.5
 49
1.25
 49
-.25
 49
.25
 49
-.25
 49
.25
 49
-.25
  0
ENDTAB
  0
TABLE
  2
LAYER
 70
1
  0
LAYER
  2
1
 70
0
 62
7
  6
CONTINUOUS
 0
ENDTAB
  0
TABLE
  2
STYLE
 70
2
  0
STYLE
  2
MONOTXT
 70
0
 40
0
 41
1
 50
0
 71
0
 42
.2
  3
monotxt
  0
STYLE
  2
BIGFONT
 70
0
 40
0
 41
1
 50
0
 71
0
 42
.2
  3
txt
  4
bigfont
  0
ENDTAB
  0
ENDSEC
  0
SECTION
  2
ENTITIES
  0
LINE
  8
0
  6
PHANTOM
 10
-1.15002016E+02
 20
7.86379445E+00
 11
-1.15002016E+02
 21
8.59879462E+01
  0
LINE
  8
0
 62
7
 10
-1.00250000E+02
 20
6.54591408E+01
 11
-1.00250000E+02
 21
5.14591408E+01
  0
LINE
  8
0
 62
7
 10
-9.48600000E+01
 20
4.00140614E+01
 11
-9.48600000E+01
 21
3.80140614E+01
  0
LINE
  8
0
 62
7
 10
-9.72600000E+01
 20
3.46140614E+01
 11
-9.50900000E+01
 21
3.46140614E+01
  0
LINE
  8
0
 62
7
 10
-9.72600000E+01
 20
4.04140614E+01
 11
-9.50900000E+01
 21
4.04140614E+01
  0
LINE
  8
0
 62
7
 10
-9.50900000E+01
 20
4.04140614E+01
 11
-9.48600000E+01
 21
4.00140614E+01
  0
LINE
  8
0
 62
7
 10
-9.50900000E+01
 20
3.46140614E+01
 11
-9.48600000E+01
 21
3.50140614E+01
  0
LINE
  8
0
 62
7
 10
-9.53600000E+01
 20
3.80140614E+01
 11
-9.48600000E+01
 21
3.80140614E+01
  0
LINE
  8
0
 62
7
 10
-9.53600000E+01
 20
3.70140614E+01
 11
-9.48600000E+01
 21
3.70140614E+01
  0
LINE
  8
0
 62
7
 10
-9.53600000E+01
 20
3.80140614E+01
 11
-9.53600000E+01
 21
3.70140614E+01
  0
LINE
  8
0
 62
7
 10
-9.48600000E+01
 20
3.70140614E+01
 11
-9.48600000E+01
 21
3.50140614E+01
  0
LINE
  8
0
 62
7
 10
-9.72600000E+01
 20
3.60740614E+01
 11
-9.50900000E+01
 21
3.60740614E+01
  0
LINE
  8
0
 62
7
 10
-9.72600000E+01
 20
3.89640614E+01
 11
-9.50900000E+01
 21
3.89640614E+01
  0
ARC
  8
0
 62
7
 10
-9.61179548E+01
 20
3.53440614E+01
 40
1.26078988E+00
 50
3.24619613E+02
 51
3.53803868E+01
  0
ARC
  8
0
 62
7
 10
-9.61179482E+01
 20
3.96890614E+01
 40
1.25789609E+00
 50
3.24805126E+02
 51
3.51948745E+01
  0
ARC
  8
0
 62
7
 10
-9.94848601E+01
 20
3.75004146E+01
 40
4.62052796E+00
 50
3.42019145E+02
 51
3.53957898E+02
  0
ARC
  8
0
 62
7
 10
-9.94842669E+01
 20
3.75429000E+01
 40
4.61836351E+00
 50
5.85545317E+00
 51
1.79218629E+01
  0
LINE
  8
0
 62
7
 10
-1.29250000E+02
 20
5.13561698E+01
 11
-1.29250000E+02
 21
5.04137817E+01
  0
LINE
  8
0
 62
7
 10
-1.58252649E+02
 20
3.21140614E+01
 11
-1.63250000E+02
 21
3.21140614E+01
  0
LINE
  8
0
 62
7
 10
-1.58252059E+02
 20
4.29140614E+01
 11
-1.63250000E+02
 21
4.29140614E+01
  0
LINE
  8
0
 62
7
 10
-9.72600000E+01
 20
2.50140614E+01
 11
-1.63250000E+02
 21
2.50140614E+01
  0
LINE
  8
0
 62
7
 10
-9.72600000E+01
 20
2.89140614E+01
 11
-1.63250000E+02
 21
2.89140614E+01
  0
LINE
  8
0
 62
7
 10
-9.72600000E+01
 20
3.21140614E+01
 11
-1.52255419E+02
 21
3.21140614E+01
  0
LINE
  8
0
 62
7
 10
-9.72600000E+01
 20
4.29140614E+01
 11
-1.52256010E+02
 21
4.29140614E+01
  0
LINE
  8
0
 62
7
 10
-9.72600000E+01
 20
4.61140614E+01
 11
-1.63250000E+02
 21
4.61140614E+01
  0
LINE
  8
0
 62
7
 10
-9.72600000E+01
 20
4.80140614E+01
 11
-1.63250000E+02
 21
4.80140614E+01
  0
LINE
  8
0
 62
7
 10
-9.72600000E+01
 20
5.07182245E+01
 11
-1.29250000E+02
 21
5.07182245E+01
  0
LINE
  8
0
 62
7
 10
-1.36500000E+02
 20
5.09131992E+01
 11
-1.56000000E+02
 21
5.09131992E+01
  0
LINE
  8
0
 62
7
 10
-1.00250000E+02
 20
5.14591408E+01
 11
-1.70250000E+02
 21
5.14591408E+01
  0
LINE
  8
0
 62
7
 10
-1.00250000E+02
 20
6.54591408E+01
 11
-1.70250000E+02
 21
6.54591408E+01
  0
LINE
  8
0
 62
7
 10
-1.00250000E+02
 20
5.65140614E+01
 11
-9.72600000E+01
 21
5.65140614E+01
  0
LINE
  8
0
 62
7
 10
-1.29250000E+02
 20
5.04137817E+01
 11
-1.63250000E+02
 21
5.04137817E+01
  0
LINE
  8
0
  6
CENTER
 62
2
 10
-1.55250000E+02
 20
4.71040614E+01
 11
-1.55250000E+02
 21
2.73965837E+01
  0
LINE
  8
0
 62
7
 10
-9.72600000E+01
 20
5.65140614E+01
 11
-9.72600000E+01
 21
2.50140614E+01
  0
LINE
  8
0
  6
CENTER
 62
2
 10
-1.59490000E+02
 20
3.20140614E+01
 11
-1.51570000E+02
 21
3.20140614E+01
  0
LINE
  8
0
  6
CENTER
 62
2
 10
-1.59380000E+02
 20
4.30140614E+01
 11
-1.51570000E+02
 21
4.30140614E+01
  0
LINE
  8
0
 62
7
 10
-1.63250000E+02
 20
5.13561698E+01
 11
-1.63250000E+02
 21
2.50140614E+01
  0
LINE
  8
0
  6
CENTER
 62
2
 10
-1.79872338E+02
 20
3.75140614E+01
 11
-9.47763003E+01
 21
3.75140614E+01
  0
CIRCLE
  8
0
 62
7
 10
-1.55254034E+02
 20
4.30229170E+01
 40
3.00000000E+00
  0
CIRCLE
  8
0
 62
7
 10
-1.55254034E+02
 20
3.20229170E+01
 40
3.00000000E+00
  0
CIRCLE
  8
0
 62
7
 10
-1.55254034E+02
 20
4.30229170E+01
 40
1.69999981E+00
  0
CIRCLE
  8
0
 62
7
 10
-1.55254034E+02
 20
3.20229170E+01
 40
1.69999981E+00
  0
LINE
  8
0
 62
7
 10
-1.36500000E+02
 20
5.14591408E+01
 11
-1.36500000E+02
 21
5.04137817E+01
  0
LINE
  8
0
 62
7
 10
-1.56000000E+02
 20
5.14591408E+01
 11
-1.56000000E+02
 21
5.04137817E+01
  0
LINE
  8
0
 62
7
 10
-1.39950000E+02
 20
5.14591408E+01
 11
-1.39950000E+02
 21
5.04137817E+01
  0
LINE
  8
0
 62
7
 10
-1.52550000E+02
 20
5.14591408E+01
 11
-1.52550000E+02
 21
5.04137817E+01
  0
ARC
  8
0
 62
7
 10
-1.68487278E+02
 20
3.44815391E+01
 40
1.63465466E+00
 50
3.21951778E+02
 51
3.91716323E+01
  0
ARC
  8
0
 62
7
 10
-1.68487379E+02
 20
4.05515237E+01
 40
1.63785767E+00
 50
3.20696632E+02
 51
3.81854377E+01
  0
ARC
  8
0
 62
7
 10
-1.67620760E+02
 20
3.44816179E+01
 40
1.62838117E+00
 50
1.40651875E+02
 51
2.18224714E+02
  0
ARC
  8
0
 62
7
 10
-1.72862360E+02
 20
3.75140614E+01
 40
6.01462087E+00
 50
3.40578015E+02
 51
1.94219853E+01
  0
ARC
  8
0
 62
7
 10
-1.63245679E+02
 20
3.75140614E+01
 40
6.00704056E+00
 50
1.60552520E+02
 51
1.99447480E+02
  0
ARC
  8
0
 62
7
 10
-1.67620658E+02
 20
4.05514452E+01
 40
1.63159634E+00
 50
1.41637910E+02
 51
2.19480021E+02
  0
LINE
  8
0
 62
7
 10
-1.70250000E+02
 20
4.35140614E+01
 11
-1.69250000E+02
 21
4.35140614E+01
  0
LINE
  8
0
 62
7
 10
-1.70250000E+02
 20
3.15140614E+01
 11
-1.69250000E+02
 21
3.15140614E+01
  0
LINE
  8
0
 62
7
 10
-1.70250000E+02
 20
6.54591408E+01
 11
-1.70250000E+02
 21
2.65238322E+01
  0
LINE
  8
0
 62
7
 10
-1.76250000E+02
 20
6.52238322E+01
 11
-1.76250000E+02
 21
2.65238322E+01
  0
LINE
  8
0
 62
7
 10
-1.66850000E+02
 20
3.40840614E+01
 11
-1.67200000E+02
 21
3.34740614E+01
  0
LINE
  8
0
 62
7
 10
-1.66850000E+02
 20
4.09540614E+01
 11
-1.67200000E+02
 21
4.15640614E+01
  0
LINE
  8
0
 62
7
 10
-1.69250000E+02
 20
3.40840614E+01
 11
-1.68900000E+02
 21
3.34740614E+01
  0
LINE
  8
0
 62
7
 10
-1.69250000E+02
 20
4.09540614E+01
 11
-1.68900000E+02
 21
4.15640614E+01
  0
LINE
  8
0
 62
7
 10
-1.66850000E+02
 20
4.09540614E+01
 11
-1.66850000E+02
 21
3.40840614E+01
  0
LINE
  8
0
 62
7
 10
-1.68900000E+02
 20
3.34740614E+01
 11
-1.67200000E+02
 21
3.34740614E+01
  0
LINE
  8
0
 62
7
 10
-1.68900000E+02
 20
4.15640614E+01
 11
-1.67200000E+02
 21
4.15640614E+01
  0
LINE
  8
0
 62
7
 10
-1.67190000E+02
 20
3.55140614E+01
 11
-1.68910000E+02
 21
3.55140614E+01
  0
LINE
  8
0
 62
7
 10
-1.68910000E+02
 20
3.95140614E+01
 11
-1.67190000E+02
 21
3.95140614E+01
  0
LINE
  8
0
 62
7
 10
-1.66850000E+02
 20
3.55140614E+01
 11
-1.63750000E+02
 21
3.55140614E+01
  0
LINE
  8
0
 62
2
 10
-1.66850000E+02
 20
3.58640614E+01
 11
-1.65250000E+02
 21
3.58640614E+01
  0
LINE
  8
0
 62
2
 10
-1.66850000E+02
 20
3.91640614E+01
 11
-1.65250000E+02
 21
3.91640614E+01
  0
LINE
  8
0
 62
7
 10
-1.66850000E+02
 20
3.95140614E+01
 11
-1.63750000E+02
 21
3.95140614E+01
  0
LINE
  8
0
 62
7
 10
-1.69250000E+02
 20
4.35140614E+01
 11
-1.69250000E+02
 21
3.15140614E+01
  0
LINE
  8
0
 62
2
 10
-1.65250000E+02
 20
3.58640614E+01
 11
-1.64640000E+02
 21
3.55140614E+01
  0
LINE
  8
0
 62
2
 10
-1.65250000E+02
 20
3.91640614E+01
 11
-1.64640000E+02
 21
3.95140614E+01
  0
LINE
  8
0
 62
7
 10
-1.63750000E+02
 20
3.55140614E+01
 11
-1.63250000E+02
 21
3.50140614E+01
  0
LINE
  8
0
 62
7
 10
-1.63750000E+02
 20
3.95140614E+01
 11
-1.63250000E+02
 21
4.00140614E+01
  0
LINE
  8
0
 62
7
 10
-1.63750000E+02
 20
3.95140614E+01
 11
-1.63750000E+02
 21
3.55140614E+01
  0
LINE
  8
0
 62
7
 10
-1.65250000E+02
 20
3.95140614E+01
 11
-1.65250000E+02
 21
3.55140614E+01
  0
LINE
  8
0
 62
7
 10
-1.76250000E+02
 20
6.52238322E+01
 11
-1.70250000E+02
 21
6.52238322E+01
  0
LINE
  8
0
 62
7
 10
-1.76250000E+02
 20
2.65238322E+01
 11
-1.70250000E+02
 21
2.65238322E+01
  0
LINE
  8
0
  6
CENTER
 62
2
 10
-1.51250000E+02
 20
6.34706988E+01
 11
-1.51250000E+02
 21
5.73405148E+01
  0
LINE
  8
0
  6
CENTER
 62
2
 10
-1.36250000E+02
 20
6.34706988E+01
 11
-1.36250000E+02
 21
5.73405148E+01
  0
LINE
  8
0
  6
CENTER
 62
6
 10
-1.21250000E+02
 20
6.34706988E+01
 11
-1.21250000E+02
 21
5.73405148E+01
  0
LINE
  8
0
  6
CENTER
 62
2
 10
-1.17921196E+02
 20
6.04591408E+01
 11
-1.54504552E+02
 21
6.04591408E+01
  0
CIRCLE
  8
0
 62
6
 10
-1.21250000E+02
 20
6.04591408E+01
 40
1.50000000E+00
  0
CIRCLE
  8
0
 62
2
 10
-1.36250000E+02
 20
6.04591408E+01
 40
1.50000000E+00
  0
CIRCLE
  8
0
 62
2
 10
-1.51250000E+02
 20
6.04591408E+01
 40
1.50000000E+00
  0
CIRCLE
  8
0
 62
7
 10
-1.51250000E+02
 20
6.04591408E+01
 40
1.25000000E+00
  0
CIRCLE
  8
0
 62
7
 10
-1.36250000E+02
 20
6.04591408E+01
 40
1.25000000E+00
  0
CIRCLE
  8
0
 62
4
 10
-1.21250000E+02
 20
6.04591408E+01
 40
1.25000000E+00
  0
LINE
  8
0
  6
CENTER
 62
2
 10
-2.36355425E+02
 20
5.77238322E+01
 11
-2.29239156E+02
 21
5.77238322E+01
  0
CIRCLE
  8
0
 62
7
 10
-2.32750000E+02
 20
5.77326847E+01
 40
3.00000000E+00
  0
CIRCLE
  8
0
 62
7
 10
-2.32750000E+02
 20
5.77326847E+01
 40
2.75000000E+00
  0
LINE
  8
0
 62
7
 10
-2.32749810E+02
 20
5.91638322E+01
 11
-2.33989810E+02
 21
5.84438322E+01
  0
LINE
  8
0
 62
7
 10
-2.32749810E+02
 20
5.62938322E+01
 11
-2.33989810E+02
 21
5.70138322E+01
  0
LINE
  8
0
 62
7
 10
-2.31499810E+02
 20
5.70138322E+01
 11
-2.32749810E+02
 21
5.62938322E+01
  0
LINE
  8
0
 62
7
 10
-2.31499810E+02
 20
5.84438322E+01
 11
-2.31499810E+02
 21
5.70138322E+01
  0
LINE
  8
0
 62
7
 10
-2.32749810E+02
 20
5.91638322E+01
 11
-2.31499810E+02
 21
5.84438322E+01
  0
LINE
  8
0
  6
CENTER
 62
2
 10
-2.32750000E+02
 20
5.38065631E+01
 11
-2.32750000E+02
 21
6.14761283E+01
  0
LINE
  8
0
 62
7
 10
-2.33989810E+02
 20
5.84438322E+01
 11
-2.33989810E+02
 21
5.70138322E+01
  0
LINE
  8
0
  6
CENTER
 62
2
 10
-2.43355425E+02
 20
6.17238322E+01
 11
-2.36239156E+02
 21
6.17238322E+01
  0
CIRCLE
  8
0
 62
7
 10
-2.39750000E+02
 20
6.17326847E+01
 40
3.00000000E+00
  0
CIRCLE
  8
0
 62
7
 10
-2.39750000E+02
 20
6.17326847E+01
 40
2.75000000E+00
  0
LINE
  8
0
 62
7
 10
-2.39749810E+02
 20
6.31638322E+01
 11
-2.40989810E+02
 21
6.24438322E+01
  0
LINE
  8
0
 62
7
 10
-2.39749810E+02
 20
6.02938322E+01
 11
-2.40989810E+02
 21
6.10138322E+01
  0
LINE
  8
0
 62
7
 10
-2.38499810E+02
 20
6.10138322E+01
 11
-2.39749810E+02
 21
6.02938322E+01
  0
LINE
  8
0
 62
7
 10
-2.38499810E+02
 20
6.24438322E+01
 11
-2.38499810E+02
 21
6.10138322E+01
  0
LINE
  8
0
 62
7
 10
-2.39749810E+02
 20
6.31638322E+01
 11
-2.38499810E+02
 21
6.24438322E+01
  0
LINE
  8
0
  6
CENTER
 62
2
 10
-2.39750000E+02
 20
5.78065631E+01
 11
-2.39750000E+02
 21
6.54761283E+01
  0
LINE
  8
0
 62
7
 10
-2.40989810E+02
 20
6.24438322E+01
 11
-2.40989810E+02
 21
6.10138322E+01
  0
CIRCLE
  8
0
 62
2
 10
-2.39750190E+02
 20
4.57326878E+01
 40
1.50000000E+00
  0
CIRCLE
  8
0
 62
7
 10
-2.39750190E+02
 20
4.57326878E+01
 40
1.25000000E+00
  0
CIRCLE
  8
0
 62
7
 10
-2.32750190E+02
 20
4.57326878E+01
 40
1.25000000E+00
  0
CIRCLE
  8
0
 62
2
 10
-2.32750190E+02
 20
4.57326878E+01
 40
1.50000000E+00
  0
CIRCLE
  8
0
 62
2
 10
-2.32750190E+02
 20
2.97326878E+01
 40
1.50000000E+00
  0
CIRCLE
  8
0
 62
7
 10
-2.32750190E+02
 20
2.97326878E+01
 40
1.25000000E+00
  0
CIRCLE
  8
0
 62
7
 10
-2.39750190E+02
 20
2.97326878E+01
 40
1.25000000E+00
  0
CIRCLE
  8
0
 62
2
 10
-2.39750190E+02
 20
2.97326878E+01
 40
1.50000000E+00
  0
CIRCLE
  8
0
 62
7
 10
-2.36250190E+02
 20
3.75229170E+01
 40
3.50000000E+00
  0
LINE
  8
0
 62
7
 10
-2.36250000E+02
 20
4.15640614E+01
 11
-2.32750000E+02
 21
3.95440614E+01
  0
CIRCLE
  8
0
 62
7
 10
-2.36250190E+02
 20
3.75229170E+01
 40
1.64999962E+00
  0
CIRCLE
  8
0
 62
2
 10
-2.36250190E+02
 20
3.75229170E+01
 40
2.00000000E+00
  0
LINE
  8
0
 62
7
 10
-2.36250000E+02
 20
4.15640614E+01
 11
-2.39750000E+02
 21
3.95440614E+01
  0
LINE
  8
0
 62
7
 10
-2.36250000E+02
 20
3.34740614E+01
 11
-2.39750000E+02
 21
3.54940614E+01
  0
LINE
  8
0
 62
7
 10
-2.39750000E+02
 20
3.95440614E+01
 11
-2.39750000E+02
 21
3.54940614E+01
  0
LINE
  8
0
 62
7
 10
-2.32750000E+02
 20
3.54940614E+01
 11
-2.36250000E+02
 21
3.34740614E+01
  0
LINE
  8
0
 62
7
 10
-2.32750000E+02
 20
3.95440614E+01
 11
-2.32750000E+02
 21
3.54940614E+01
  0
CIRCLE
  8
0
 62
7
 10
-2.36250000E+02
 20
3.75140614E+01
 40
5.00000000E+00
  0
CIRCLE
  8
0
 62
7
 10
-2.36250000E+02
 20
3.75140614E+01
 40
6.00000000E+00
  0
LINE
  8
0
  6
CENTER
 62
2
 10
-2.39750000E+02
 20
4.80538322E+01
 11
-2.39750000E+02
 21
2.76038322E+01
  0
LINE
  8
0
  6
CENTER
 62
2
 10
-2.32750000E+02
 20
4.80538322E+01
 11
-2.32750000E+02
 21
2.77038322E+01
  0
LINE
  8
0
  6
CENTER
 62
2
 10
-2.41900000E+02
 20
2.97238322E+01
 11
-2.30440000E+02
 21
2.97238322E+01
  0
LINE
  8
0
  6
CENTER
 62
2
 10
-2.42010000E+02
 20
4.57238322E+01
 11
-2.30540000E+02
 21
4.57238322E+01
  0
LINE
  8
0
 62
7
 10
-2.29250000E+02
 20
2.65238322E+01
 11
-2.43250000E+02
 21
2.65238322E+01
  0
LINE
  8
0
 62
7
 10
-2.29250000E+02
 20
6.52238322E+01
 11
-2.43250000E+02
 21
6.52238322E+01
  0
LINE
  8
0
 62
7
 10
-2.43250000E+02
 20
5.56140614E+01
 11
-2.43450000E+02
 21
5.56140614E+01
  0
ARC
  8
0
 62
7
 10
-2.43450000E+02
 20
5.53140614E+01
 40
3.00000000E-01
 50
9.00000002E+01
 51
1.80000000E+02
  0
LINE
  8
0
 62
7
 10
-2.29250000E+02
 20
4.85140614E+01
 11
-2.28750000E+02
 21
4.80140614E+01
  0
LINE
  8
0
 62
7
 10
-2.29050000E+02
 20
2.50140614E+01
 11
-2.43450000E+02
 21
2.50140614E+01
  0
LINE
  8
0
 62
7
 10
-2.28950000E+02
 20
3.21140614E+01
 11
-2.29250000E+02
 21
3.21140614E+01
  0
LINE
  8
0
 62
7
 10
-2.28750000E+02
 20
2.89140614E+01
 11
-2.29250000E+02
 21
2.89140614E+01
  0
LINE
  8
0
 62
7
 10
-2.43550000E+02
 20
3.21140614E+01
 11
-2.43250000E+02
 21
3.21140614E+01
  0
LINE
  8
0
 62
7
 10
-2.43750000E+02
 20
2.89140614E+01
 11
-2.43250000E+02
 21
2.89140614E+01
  0
LINE
  8
0
 62
7
 10
-2.43750000E+02
 20
2.89140614E+01
 11
-2.43750000E+02
 21
2.53140614E+01
  0
LINE
  8
0
 62
7
 10
-2.43550000E+02
 20
4.29140614E+01
 11
-2.43250000E+02
 21
4.29140614E+01
  0
LINE
  8
0
 62
7
 10
-2.43750000E+02
 20
4.61140614E+01
 11
-2.43250000E+02
 21
4.61140614E+01
  0
LINE
  8
0
 62
7
 10
-2.28750000E+02
 20
4.61140614E+01
 11
-2.29250000E+02
 21
4.61140614E+01
  0
LINE
  8
0
 62
7
 10
-2.28950000E+02
 20
4.29140614E+01
 11
-2.29250000E+02
 21
4.29140614E+01
  0
LINE
  8
0
 62
7
 10
-2.28750000E+02
 20
2.89140614E+01
 11
-2.28750000E+02
 21
2.53140614E+01
  0
LINE
  8
0
 62
7
 10
-2.28750000E+02
 20
4.80140614E+01
 11
-2.28750000E+02
 21
4.61140614E+01
  0
LINE
  8
0
 62
7
 10
-2.43550000E+02
 20
4.29140614E+01
 11
-2.43550000E+02
 21
3.21140614E+01
  0
LINE
  8
0
 62
7
 10
-2.28950000E+02
 20
4.29140614E+01
 11
-2.28950000E+02
 21
3.21140614E+01
  0
ARC
  8
0
 62
7
 10
-2.43450000E+02
 20
2.53140614E+01
 40
3.00000000E-01
 50
1.80000000E+02
 51
2.70000000E+02
  0
ARC
  8
0
 62
7
 10
-2.29050000E+02
 20
2.53140614E+01
 40
3.00000000E-01
 50
2.70000000E+02
 51
0.00000000E+00
  0
LINE
  8
0
 62
7
 10
-2.43750000E+02
 20
5.53140614E+01
 11
-2.43750000E+02
 21
4.61140614E+01
  0
LINE
  8
0
  6
CENTER
 62
2
 10
-2.27772028E+02
 20
3.75140614E+01
 11
-2.44633685E+02
 21
3.75140614E+01
  0
LINE
  8
0
  6
CENTER
 62
2
 10
-2.36250000E+02
 20
6.66751942E+01
 11
-2.36250000E+02
 21
2.37609843E+01
  0
LINE
  8
0
 62
7
 10
-2.42950000E+02
 20
6.54591408E+01
 11
-2.29550000E+02
 21
6.54591408E+01
  0
LINE
  8
0
 62
7
 10
-2.43250000E+02
 20
6.51591408E+01
 11
-2.43250000E+02
 21
2.65238322E+01
  0
LINE
  8
0
 62
7
 10
-2.29250000E+02
 20
6.51591408E+01
 11
-2.29250000E+02
 21
2.65238322E+01
  0
ARC
  8
0
 62
7
 10
-2.29550000E+02
 20
6.51591408E+01
 40
3.00000000E-01
 50
0.00000000E+00
 51
9.00000002E+01
  0
ARC
  8
0
 62
7
 10
-2.42950000E+02
 20
6.51591408E+01
 40
3.00000000E-01
 50
9.00000002E+01
 51
1.80000000E+02
  0
LINE
  8
0
 62
7
 10
-4.56217898E+01
 20
3.80140614E+01
 11
-4.06217898E+01
 21
3.80140614E+01
  0
LINE
  8
0
 62
7
 10
-4.56217898E+01
 20
3.70140614E+01
 11
-4.06217898E+01
 21
3.70140614E+01
  0
LINE
  8
0
 62
7
 10
-4.31217898E+01
 20
4.04040614E+01
 11
-4.56217898E+01
 21
3.89640614E+01
  0
LINE
  8
0
 62
7
 10
-4.56217898E+01
 20
3.89640614E+01
 11
-4.56217898E+01
 21
3.60740614E+01
  0
LINE
  8
0
 62
7
 10
-4.31217898E+01
 20
3.46340614E+01
 11
-4.56217898E+01
 21
3.60740614E+01
  0
LINE
  8
0
 62
7
 10
-4.06217898E+01
 20
3.60740614E+01
 11
-4.31217898E+01
 21
3.46340614E+01
  0
LINE
  8
0
 62
7
 10
-4.06217898E+01
 20
3.89640614E+01
 11
-4.06217898E+01
 21
3.60740614E+01
  0
LINE
  8
0
 62
7
 10
-4.31217898E+01
 20
4.04040614E+01
 11
-4.06217898E+01
 21
3.89640614E+01
  0
CIRCLE
  8
0
 62
7
 10
-4.31219797E+01
 20
3.75228712E+01
 40
6.30000019E+00
  0
ARC
  8
0
 62
7
 10
-4.31217898E+01
 20
3.75228712E+01
 40
7.49393388E+00
 50
6.80599943E+01
 51
1.11940005E+02
  0
ARC
  8
0
 62
7
 10
-4.31217898E+01
 20
3.75229628E+01
 40
7.50108714E+00
 50
2.48082001E+02
 51
2.91917999E+02
  0
CIRCLE
  8
0
 62
7
 10
-4.31219797E+01
 20
3.75228712E+01
 40
4.89999962E+00
  0
CIRCLE
  8
0
 62
7
 10
-4.31219797E+01
 20
3.75229170E+01
 40
5.39999962E+00
  0
ARC
  8
0
 62
7
 10
-4.31217898E+01
 20
3.75229170E+01
 40
2.49874425E+00
 50
1.13356640E+01
 51
1.68664336E+02
  0
ARC
  8
0
 62
7
 10
-4.31217898E+01
 20
3.75229170E+01
 40
2.50228576E+00
 50
1.91733296E+02
 51
3.48266704E+02
  0
LINE
  8
0
 62
7
 10
-3.62217898E+01
 20
3.21140614E+01
 11
-3.62217898E+01
 21
2.88140614E+01
  0
LINE
  8
0
 62
7
 10
-5.00217898E+01
 20
3.21140614E+01
 11
-5.00217898E+01
 21
2.88140614E+01
  0
LINE
  8
0
 62
7
 10
-5.00217898E+01
 20
4.61140614E+01
 11
-5.00217898E+01
 21
4.28140614E+01
  0
LINE
  8
0
 62
7
 10
-3.62217898E+01
 20
4.61140614E+01
 11
-3.62217898E+01
 21
4.28140614E+01
  0
LINE
  8
0
 62
7
 10
-5.00217898E+01
 20
5.14591408E+01
 11
-5.00217898E+01
 21
4.86140614E+01
  0
LINE
  8
0
 62
7
 10
-3.62217898E+01
 20
5.64591408E+01
 11
-3.62217898E+01
 21
5.56140614E+01
  0
LINE
  8
0
 62
7
 10
-5.01217898E+01
 20
6.51591408E+01
 11
-5.01217898E+01
 21
5.14591408E+01
  0
LINE
  8
0
 62
7
 10
-3.61217898E+01
 20
6.51591408E+01
 11
-3.61217898E+01
 21
5.64591408E+01
  0
LINE
  8
0
 62
7
 10
-3.61217898E+01
 20
5.64591408E+01
 11
-3.69037163E+01
 21
5.64591408E+01
  0
LINE
  8
0
 62
7
 10
-4.72983880E+01
 20
5.37416264E+01
 11
-4.34093007E+01
 21
5.76307136E+01
  0
LINE
  8
0
 62
7
 10
-4.30557473E+01
 20
5.72771603E+01
 11
-4.03687415E+01
 21
5.99641660E+01
  0
LINE
  8
0
 62
7
 10
-3.64217898E+01
 20
6.54591408E+01
 11
-4.98217898E+01
 21
6.54591408E+01
  0
LINE
  8
0
 62
7
 10
-3.68637163E+01
 20
5.64591408E+01
 11
-4.03687415E+01
 21
5.99641660E+01
  0
LINE
  8
0
 62
7
 10
-4.88737668E+01
 20
5.14591408E+01
 11
-5.01217898E+01
 21
5.14591408E+01
  0
LINE
  8
0
 62
7
 10
-4.88737668E+01
 20
5.14591408E+01
 11
-4.69448346E+01
 21
5.33880730E+01
  0
LINE
  8
0
 62
7
 10
-4.69448346E+01
 20
5.33880730E+01
 11
-4.72983880E+01
 21
5.37416264E+01
  0
LINE
  8
0
  6
CENTER
 62
2
 10
-4.13753301E+01
 20
6.17591408E+01
 11
-4.59400931E+01
 21
6.17591408E+01
  0
LINE
  8
0
  6
CENTER
 62
2
 10
-4.36700887E+01
 20
6.38714675E+01
 11
-4.36700887E+01
 21
5.94657423E+01
  0
CIRCLE
  8
0
 62
7
 10
-4.36700887E+01
 20
6.17591408E+01
 40
1.50000000E+00
  0
LINE
  8
0
 62
7
 10
-3.69406715E+01
 20
5.56140614E+01
 11
-3.66917862E+01
 21
5.58629467E+01
  0
CIRCLE
  8
0
 62
2
 10
-4.31217898E+01
 20
2.80140614E+01
 40
1.50000000E+00
  0
CIRCLE
  8
0
 62
7
 10
-4.31217898E+01
 20
2.80140614E+01
 40
1.25000000E+00
  0
CIRCLE
  8
0
 62
2
 10
-4.31217898E+01
 20
4.70140614E+01
 40
1.50000000E+00
  0
CIRCLE
  8
0
 62
7
 10
-4.31217898E+01
 20
4.70140614E+01
 40
1.25000000E+00
  0
LINE
  8
0
  6
CENTER
 62
2
 10
-4.51266569E+01
 20
4.70140614E+01
 11
-4.04427927E+01
 21
4.70140614E+01
  0
LINE
  8
0
  6
CENTER
 62
2
 10
-4.31217898E+01
 20
6.66751942E+01
 11
-4.31217898E+01
 21
2.37609843E+01
  0
LINE
  8
0
  6
CENTER
 62
2
 10
-5.15997622E+01
 20
3.75140614E+01
 11
-3.47381052E+01
 21
3.75140614E+01
  0
LINE
  8
0
  6
CENTER
 62
2
 10
-4.53129251E+01
 20
2.80140614E+01
 11
-4.10336027E+01
 21
2.80140614E+01
  0
LINE
  8
0
 62
7
 10
-3.56217898E+01
 20
5.53140614E+01
 11
-3.56217898E+01
 21
4.61140614E+01
  0
LINE
  8
0
 62
7
 10
-3.88670171E+01
 20
5.55261935E+01
 11
-4.54599103E+01
 21
4.89333002E+01
  0
ARC
  8
0
 62
7
 10
-4.77933627E+01
 20
5.04182245E+01
 40
3.00000000E-01
 50
4.50000000E+01
 51
1.35000000E+02
  0
ARC
  8
0
 62
7
 10
-4.56720424E+01
 20
4.91454323E+01
 40
3.00000000E-01
 50
2.25000000E+02
 51
3.15000000E+02
  0
ARC
  8
0
 62
7
 10
-5.03217898E+01
 20
2.53140614E+01
 40
3.00000000E-01
 50
1.80000000E+02
 51
2.70000000E+02
  0
ARC
  8
0
 62
7
 10
-3.59217898E+01
 20
2.53140614E+01
 40
3.00000000E-01
 50
2.70000000E+02
 51
0.00000000E+00
  0
LINE
  8
0
 62
7
 10
-5.04217898E+01
 20
4.29140614E+01
 11
-5.04217898E+01
 21
3.21140614E+01
  0
LINE
  8
0
 62
7
 10
-3.58217898E+01
 20
4.29140614E+01
 11
-3.58217898E+01
 21
3.21140614E+01
  0
LINE
  8
0
 62
7
 10
-4.75812307E+01
 20
5.06303565E+01
 11
-4.58841744E+01
 21
4.89333002E+01
  0
LINE
  8
0
 62
7
 10
-5.06217898E+01
 20
4.80140614E+01
 11
-5.06217898E+01
 21
4.61140614E+01
  0
LINE
  8
0
 62
7
 10
-5.06217898E+01
 20
2.89140614E+01
 11
-5.06217898E+01
 21
2.53140614E+01
  0
LINE
  8
0
 62
7
 10
-5.04217898E+01
 20
4.29140614E+01
 11
-5.01217898E+01
 21
4.29140614E+01
  0
LINE
  8
0
 62
7
 10
-4.96217898E+01
 20
4.24140614E+01
 11
-5.01217898E+01
 21
4.29140614E+01
  0
LINE
  8
0
 62
7
 10
-4.96217898E+01
 20
4.24140614E+01
 11
-4.80217898E+01
 21
4.24140614E+01
  0
LINE
  8
0
 62
7
 10
-4.96217898E+01
 20
4.66140614E+01
 11
-4.80217898E+01
 21
4.66140614E+01
  0
LINE
  8
0
 62
7
 10
-4.96217898E+01
 20
4.66140614E+01
 11
-5.01217898E+01
 21
4.61140614E+01
  0
LINE
  8
0
 62
7
 10
-5.06217898E+01
 20
4.61140614E+01
 11
-5.01217898E+01
 21
4.61140614E+01
  0
LINE
  8
0
 62
7
 10
-3.56217898E+01
 20
4.61140614E+01
 11
-3.61217898E+01
 21
4.61140614E+01
  0
LINE
  8
0
 62
7
 10
-3.66217898E+01
 20
4.66140614E+01
 11
-3.61217898E+01
 21
4.61140614E+01
  0
LINE
  8
0
 62
7
 10
-3.66217898E+01
 20
4.66140614E+01
 11
-3.82217898E+01
 21
4.66140614E+01
  0
LINE
  8
0
 62
7
 10
-3.66217898E+01
 20
4.24140614E+01
 11
-3.82217898E+01
 21
4.24140614E+01
  0
LINE
  8
0
 62
7
 10
-3.66217898E+01
 20
4.24140614E+01
 11
-3.61217898E+01
 21
4.29140614E+01
  0
LINE
  8
0
 62
7
 10
-3.58217898E+01
 20
4.29140614E+01
 11
-3.61217898E+01
 21
4.29140614E+01
  0
LINE
  8
0
 62
7
 10
-3.56217898E+01
 20
2.89140614E+01
 11
-3.56217898E+01
 21
2.53140614E+01
  0
LINE
  8
0
 62
7
 10
-3.56217898E+01
 20
2.89140614E+01
 11
-3.61217898E+01
 21
2.89140614E+01
  0
LINE
  8
0
 62
7
 10
-3.66217898E+01
 20
2.84140614E+01
 11
-3.61217898E+01
 21
2.89140614E+01
  0
LINE
  8
0
 62
7
 10
-3.66217898E+01
 20
2.84140614E+01
 11
-3.82217898E+01
 21
2.84140614E+01
  0
LINE
  8
0
 62
7
 10
-3.66217898E+01
 20
3.26140614E+01
 11
-3.82217898E+01
 21
3.26140614E+01
  0
LINE
  8
0
 62
7
 10
-3.66217898E+01
 20
3.26140614E+01
 11
-3.61217898E+01
 21
3.21140614E+01
  0
LINE
  8
0
 62
7
 10
-3.58217898E+01
 20
3.21140614E+01
 11
-3.61217898E+01
 21
3.21140614E+01
  0
LINE
  8
0
 62
7
 10
-4.96217898E+01
 20
2.84140614E+01
 11
-4.80217898E+01
 21
2.84140614E+01
  0
LINE
  8
0
 62
7
 10
-4.96217898E+01
 20
2.84140614E+01
 11
-5.01217898E+01
 21
2.89140614E+01
  0
LINE
  8
0
 62
7
 10
-5.06217898E+01
 20
2.89140614E+01
 11
-5.01217898E+01
 21
2.89140614E+01
  0
LINE
  8
0
 62
7
 10
-4.96217898E+01
 20
3.26140614E+01
 11
-5.01217898E+01
 21
3.21140614E+01
  0
LINE
  8
0
 62
7
 10
-5.04217898E+01
 20
3.21140614E+01
 11
-5.01217898E+01
 21
3.21140614E+01
  0
LINE
  8
0
 62
7
 10
-4.96217898E+01
 20
3.26140614E+01
 11
-4.80217898E+01
 21
3.26140614E+01
  0
LINE
  8
0
 62
7
 10
-5.03217898E+01
 20
2.50140614E+01
 11
-3.59217898E+01
 21
2.50140614E+01
  0
ARC
  8
0
 62
7
 10
-4.80217898E+01
 20
3.05140614E+01
 40
2.10000003E+00
 50
2.70000000E+02
 51
9.00000002E+01
  0
ARC
  8
0
 62
7
 10
-4.80217898E+01
 20
4.45140614E+01
 40
2.10000003E+00
 50
2.70000000E+02
 51
9.00000002E+01
  0
ARC
  8
0
 62
7
 10
-3.82217898E+01
 20
4.45140614E+01
 40
2.10000000E+00
 50
9.00000002E+01
 51
2.70000000E+02
  0
ARC
  8
0
 62
7
 10
-3.82217898E+01
 20
3.05140614E+01
 40
2.10000000E+00
 50
9.00000002E+01
 51
2.70000000E+02
  0
LINE
  8
0
 62
7
 10
-4.80054947E+01
 20
5.06303565E+01
 11
-5.06217898E+01
 21
4.80140614E+01
  0
ARC
  8
0
 62
7
 10
-3.86548851E+01
 20
5.53140614E+01
 40
3.00000000E-01
 50
9.00000002E+01
 51
1.35000000E+02
  0
ARC
  8
0
 62
7
 10
-3.59217898E+01
 20
5.53140614E+01
 40
3.00000000E-01
 50
0.00000000E+00
 51
9.00000002E+01
  0
LINE
  8
0
 62
7
 10
-3.86548851E+01
 20
5.56140614E+01
 11
-3.59217898E+01
 21
5.56140614E+01
  0
LINE
  8
0
 62
7
 10
-4.07930056E+01
 20
5.50144186E+01
 11
-4.43285395E+01
 21
5.14788847E+01
  0
LINE
  8
0
 62
7
 10
-4.69448346E+01
 20
5.40951797E+01
 11
-4.43285395E+01
 21
5.14788847E+01
  0
LINE
  8
0
 62
7
 10
-4.34093007E+01
 20
5.76307136E+01
 11
-4.07930056E+01
 21
5.50144186E+01
  0
LINE
  8
0
 62
7
 10
-4.62377278E+01
 20
5.33880730E+01
 11
-4.87126015E+01
 21
5.09131992E+01
  0
LINE
  8
0
 62
7
 10
-4.02273201E+01
 20
5.93984806E+01
 11
-4.27021939E+01
 21
5.69236069E+01
  0
LINE
  8
0
 62
7
 10
-4.87126015E+01
 20
5.09131992E+01
 11
-4.82176268E+01
 21
5.04182245E+01
  0
LINE
  8
0
 62
7
 10
-4.02273201E+01
 20
5.93984806E+01
 11
-3.66917862E+01
 21
5.58629467E+01
  0
LINE
  8
0
  6
CENTER
 62
2
 10
-5.15997622E+01
 20
4.45140614E+01
 11
-3.47381052E+01
 21
4.45140614E+01
  0
LINE
  8
0
  6
CENTER
 62
2
 10
-5.15997622E+01
 20
3.05140614E+01
 11
-3.47381052E+01
 21
3.05140614E+01
  0
ARC
  8
0
 62
7
 10
-3.64217898E+01
 20
6.51591408E+01
 40
3.00000000E-01
 50
0.00000000E+00
 51
9.00000002E+01
  0
ARC
  8
0
 62
7
 10
-4.98217898E+01
 20
6.51591408E+01
 40
3.00000000E-01
 50
9.00000002E+01
 51
1.80000000E+02
  0
LINE
  8
0
  6
PHANTOM
 10
-1.15002016E+02
 20
8.59879462E+01
 11
-1.15002016E+02
 21
1.35048854E+02
  0
LINE
  8
0
 62
7
 10
-1.00250000E+02
 20
1.18403506E+02
 11
-1.00250000E+02
 21
1.04403506E+02
  0
LINE
  8
0
 62
7
 10
-9.48600000E+01
 20
1.13503506E+02
 11
-9.48600000E+01
 21
1.09303506E+02
  0
LINE
  8
0
 62
7
 10
-9.50900000E+01
 20
1.08903506E+02
 11
-9.48600000E+01
 21
1.09303506E+02
  0
LINE
  8
0
 62
7
 10
-9.50900000E+01
 20
1.13903506E+02
 11
-9.48600000E+01
 21
1.13503506E+02
  0
ARC
  8
0
 62
7
 10
-9.83525068E+01
 20
1.12653506E+02
 40
3.49377314E+00
 50
3.39036117E+02
 51
2.09638829E+01
  0
ARC
  8
0
 62
7
 10
-9.83525068E+01
 20
1.10153506E+02
 40
3.49377314E+00
 50
3.39036117E+02
 51
2.09638829E+01
  0
LINE
  8
0
 62
7
 10
-9.72600000E+01
 20
1.11403506E+02
 11
-9.50900000E+01
 21
1.11403506E+02
  0
LINE
  8
0
 62
7
 10
-9.72600000E+01
 20
1.08903506E+02
 11
-9.50900000E+01
 21
1.08903506E+02
  0
LINE
  8
0
 62
7
 10
-9.72600000E+01
 20
1.13903506E+02
 11
-9.50900000E+01
 21
1.13903506E+02
  0
LINE
  8
0
 62
7
 10
-1.00250000E+02
 20
1.18403506E+02
 11
-1.76250000E+02
 21
1.18403506E+02
  0
LINE
  8
0
 62
7
 10
-1.00250000E+02
 20
1.04403506E+02
 11
-1.76250000E+02
 21
1.04403506E+02
  0
LINE
  8
0
 62
7
 10
-9.72600000E+01
 20
1.03903506E+02
 11
-1.63250000E+02
 21
1.03903506E+02
  0
LINE
  8
0
 62
7
 10
-9.72600000E+01
 20
1.18903506E+02
 11
-1.63250000E+02
 21
1.18903506E+02
  0
LINE
  8
0
  6
CENTER
 62
2
 10
-1.78733983E+02
 20
1.11403506E+02
 11
-9.28184848E+01
 21
1.11403506E+02
  0
LINE
  8
0
 62
7
 10
-1.63250000E+02
 20
1.18903506E+02
 11
-1.63250000E+02
 21
1.18403506E+02
  0
LINE
  8
0
 62
7
 10
-9.72600000E+01
 20
1.18903506E+02
 11
-9.72600000E+01
 21
1.03903506E+02
  0
LINE
  8
0
 62
7
 10
-1.70250000E+02
 20
1.18403506E+02
 11
-1.70250000E+02
 21
1.04403506E+02
  0
LINE
  8
0
 62
7
 10
-1.63250000E+02
 20
1.04403506E+02
 11
-1.63250000E+02
 21
1.03903506E+02
  0
CIRCLE
  8
0
 62
2
 10
-1.56250000E+02
 20
1.15403506E+02
 40
1.50000000E+00
  0
CIRCLE
  8
0
 62
2
 10
-1.46250000E+02
 20
1.15403506E+02
 40
1.50000000E+00
  0
LINE
  8
0
  6
CENTER
 62
2
 10
-1.59414156E+02
 20
1.15403506E+02
 11
-1.27326872E+02
 21
1.15403506E+02
  0
LINE
  8
0
  6
CENTER
 62
2
 10
-1.46250000E+02
 20
1.17598223E+02
 11
-1.46250000E+02
 21
1.05143563E+02
  0
LINE
  8
0
  6
CENTER
 62
2
 10
-1.56250000E+02
 20
1.17598223E+02
 11
-1.56250000E+02
 21
1.05143563E+02
  0
LINE
  8
0
  6
CENTER
 62
2
 10
-1.31250000E+02
 20
1.17598223E+02
 11
-1.31250000E+02
 21
1.05143563E+02
  0
CIRCLE
  8
0
 62
2
 10
-1.31250000E+02
 20
1.15403506E+02
 40
1.50000000E+00
  0
CIRCLE
  8
0
 62
7
 10
-1.31250000E+02
 20
1.15403506E+02
 40
1.25000000E+00
  0
CIRCLE
  8
0
 62
7
 10
-1.46250000E+02
 20
1.15403506E+02
 40
1.25000000E+00
  0
CIRCLE
  8
0
 62
7
 10
-1.56250000E+02
 20
1.15403506E+02
 40
1.25000000E+00
  0
CIRCLE
  8
0
 62
2
 10
-1.56250000E+02
 20
1.07403506E+02
 40
1.50000000E+00
  0
CIRCLE
  8
0
 62
2
 10
-1.46250000E+02
 20
1.07403506E+02
 40
1.50000000E+00
  0
CIRCLE
  8
0
 62
7
 10
-1.46250000E+02
 20
1.07403506E+02
 40
1.25000000E+00
  0
CIRCLE
  8
0
 62
7
 10
-1.56250000E+02
 20
1.07403506E+02
 40
1.25000000E+00
  0
LINE
  8
0
  6
CENTER
 62
2
 10
-1.59414156E+02
 20
1.07403506E+02
 11
-1.27863795E+02
 21
1.07403506E+02
  0
CIRCLE
  8
0
 62
2
 10
-1.31250000E+02
 20
1.07403506E+02
 40
1.50000000E+00
  0
CIRCLE
  8
0
 62
7
 10
-1.31250000E+02
 20
1.07403506E+02
 40
1.25000000E+00
  0
LINE
  8
0
 62
7
 10
-1.76250000E+02
 20
1.18403506E+02
 11
-1.76250000E+02
 21
1.04403506E+02
  0
LINE
  8
0
 62
7
 10
-9.72600000E+01
 20
1.15746147E+02
 11
-1.00250000E+02
 21
1.15746147E+02
  0
LINE
  8
0
 62
7
 10
-9.72600000E+01
 20
1.08853253E+02
 11
-1.00250000E+02
 21
1.08853253E+02
  0
LINE
  8
0
 62
7
 10
-9.72600000E+01
 20
1.06731933E+02
 11
-1.00250000E+02
 21
1.06731933E+02
  0
LINE
  8
0
  6
PHANTOM
 10
-1.15002016E+02
 20
-3.59070022E+01
 11
-1.15002016E+02
 21
7.86379445E+00
  0
LINE
  8
0
 62
7
 10
-9.48600000E+01
 20
-1.64864941E+01
 11
-9.48600000E+01
 21
-2.06864941E+01
  0
LINE
  8
0
 62
7
 10
-9.50900000E+01
 20
-2.10864941E+01
 11
-9.48600000E+01
 21
-2.06864941E+01
  0
LINE
  8
0
 62
7
 10
-9.50900000E+01
 20
-1.60864941E+01
 11
-9.48600000E+01
 21
-1.64864941E+01
  0
ARC
  8
0
 62
7
 10
-9.83524965E+01
 20
-1.73364941E+01
 40
3.49376351E+00
 50
3.39036057E+02
 51
2.09639433E+01
  0
ARC
  8
0
 62
7
 10
-9.83524965E+01
 20
-1.98364941E+01
 40
3.49376351E+00
 50
3.39036057E+02
 51
2.09639433E+01
  0
LINE
  8
0
 62
7
 10
-9.72600000E+01
 20
-1.85864941E+01
 11
-9.50900000E+01
 21
-1.85864941E+01
  0
LINE
  8
0
 62
7
 10
-9.72600000E+01
 20
-2.10864941E+01
 11
-9.50900000E+01
 21
-2.10864941E+01
  0
LINE
  8
0
 62
7
 10
-9.72600000E+01
 20
-1.60864941E+01
 11
-9.50900000E+01
 21
-1.60864941E+01
  0
LINE
  8
0
 62
7
 10
-9.72600000E+01
 20
-2.60864941E+01
 11
-1.63250000E+02
 21
-2.60864941E+01
  0
LINE
  8
0
 62
7
 10
-9.72600000E+01
 20
-1.10864941E+01
 11
-1.63250000E+02
 21
-1.10864941E+01
  0
LINE
  8
0
 62
7
 10
-1.63250000E+02
 20
-2.55864941E+01
 11
-1.76250000E+02
 21
-2.55864941E+01
  0
LINE
  8
0
 62
7
 10
-1.63250000E+02
 20
-1.15864941E+01
 11
-1.76250000E+02
 21
-1.15864941E+01
  0
LINE
  8
0
  6
CENTER
 62
2
 10
-1.78616580E+02
 20
-1.85864941E+01
 11
-9.42948145E+01
 21
-1.85864941E+01
  0
LINE
  8
0
 62
7
 10
-1.63250000E+02
 20
-1.10864941E+01
 11
-1.63250000E+02
 21
-2.60864941E+01
  0
LINE
  8
0
 62
7
 10
-9.72600000E+01
 20
-1.10864941E+01
 11
-9.72600000E+01
 21
-2.60864941E+01
  0
LINE
  8
0
  6
CENTER
 62
2
 10
-1.45250000E+02
 20
-1.45117304E+01
 11
-1.45250000E+02
 21
-2.20064941E+01
  0
LINE
  8
0
  6
CENTER
 62
2
 10
-1.07760000E+02
 20
-1.45117304E+01
 11
-1.07760000E+02
 21
-2.21864941E+01
  0
LINE
  8
0
  6
CENTER
 62
2
 10
-1.60250000E+02
 20
-2.02764941E+01
 11
-1.60250000E+02
 21
-2.49819241E+01
  0
LINE
  8
0
  6
CENTER
 62
2
 10
-1.02260000E+02
 20
-1.21164941E+01
 11
-1.02260000E+02
 21
-1.72461102E+01
  0
LINE
  8
0
  6
CENTER
 62
2
 10
-1.62533443E+02
 20
-2.25864941E+01
 11
-1.57890000E+02
 21
-2.25864941E+01
  0
LINE
  8
0
  6
CENTER
 62
2
 10
-1.05253490E+02
 20
-1.45864941E+01
 11
-9.94400000E+01
 21
-1.45864941E+01
  0
CIRCLE
  8
0
 62
2
 10
-1.45254033E+02
 20
-1.85876386E+01
 40
2.50000000E+00
  0
CIRCLE
  8
0
 62
7
 10
-1.45254033E+02
 20
-1.85876386E+01
 40
2.09999943E+00
  0
CIRCLE
  8
0
 62
7
 10
-1.07754031E+02
 20
-1.85876386E+01
 40
2.09999943E+00
  0
CIRCLE
  8
0
 62
2
 10
-1.07754031E+02
 20
-1.85876386E+01
 40
2.50000000E+00
  0
CIRCLE
  8
0
 62
7
 10
-1.45254033E+02
 20
-1.85876386E+01
 40
3.99999976E-01
  0
ARC
  8
0
 62
7
 10
-1.05654035E+02
 20
-1.85814941E+01
 40
3.97665409E-01
 50
9.66374848E+01
 51
2.63362515E+02
  0
ARC
  8
0
 62
7
 10
-1.05654036E+02
 20
-1.85814941E+01
 40
7.47469884E-01
 50
1.00480394E+02
 51
2.59519606E+02
  0
CIRCLE
  8
0
 62
2
 10
-1.02254031E+02
 20
-1.45876386E+01
 40
1.50000000E+00
  0
CIRCLE
  8
0
 62
7
 10
-1.02254031E+02
 20
-1.45876386E+01
 40
1.25000000E+00
  0
CIRCLE
  8
0
 62
7
 10
-1.60254031E+02
 20
-2.25876386E+01
 40
1.25000000E+00
  0
CIRCLE
  8
0
 62
2
 10
-1.60254031E+02
 20
-2.25876386E+01
 40
1.50000000E+00
  0
LINE
  8
0
 62
7
 10
-1.63750000E+02
 20
-1.65864941E+01
 11
-1.63250000E+02
 21
-1.60864941E+01
  0
LINE
  8
0
 62
7
 10
-1.63750000E+02
 20
-2.05864941E+01
 11
-1.63250000E+02
 21
-2.10864941E+01
  0
ARC
  8
0
 62
7
 10
-1.71404178E+02
 20
-2.03364941E+01
 40
4.55385689E+00
 50
3.37400353E+02
 51
2.25996470E+01
  0
ARC
  8
0
 62
7
 10
-1.71404178E+02
 20
-1.68364941E+01
 40
4.55385689E+00
 50
3.37400353E+02
 51
2.25996470E+01
  0
ARC
  8
0
 62
7
 10
-1.64703845E+02
 20
-1.68364941E+01
 40
4.54645093E+00
 50
1.57361498E+02
 51
2.02638503E+02
  0
ARC
  8
0
 62
7
 10
-1.64703845E+02
 20
-2.03364941E+01
 40
4.54645093E+00
 50
1.57361498E+02
 51
2.02638503E+02
  0
LINE
  8
0
 62
7
 10
-1.70250000E+02
 20
-1.25864941E+01
 11
-1.69250000E+02
 21
-1.25864941E+01
  0
LINE
  8
0
 62
7
 10
-1.70250000E+02
 20
-2.45864941E+01
 11
-1.69250000E+02
 21
-2.45864941E+01
  0
LINE
  8
0
 62
7
 10
-1.70250000E+02
 20
-1.15864941E+01
 11
-1.70250000E+02
 21
-2.55864941E+01
  0
LINE
  8
0
 62
7
 10
-1.76250000E+02
 20
-1.15864941E+01
 11
-1.76250000E+02
 21
-2.55864941E+01
  0
LINE
  8
0
 62
7
 10
-1.67200000E+02
 20
-2.20864941E+01
 11
-1.68900000E+02
 21
-2.20864941E+01
  0
LINE
  8
0
 62
7
 10
-1.66850000E+02
 20
-2.14764941E+01
 11
-1.67200000E+02
 21
-2.20864941E+01
  0
LINE
  8
0
 62
7
 10
-1.68900000E+02
 20
-1.85864941E+01
 11
-1.67200000E+02
 21
-1.85864941E+01
  0
LINE
  8
0
 62
7
 10
-1.66850000E+02
 20
-1.56864941E+01
 11
-1.66850000E+02
 21
-2.14764941E+01
  0
LINE
  8
0
 62
7
 10
-1.66850000E+02
 20
-1.56864941E+01
 11
-1.67200000E+02
 21
-1.50864941E+01
  0
LINE
  8
0
 62
7
 10
-1.67200000E+02
 20
-1.50864941E+01
 11
-1.68900000E+02
 21
-1.50864941E+01
  0
LINE
  8
0
 62
7
 10
-1.68900000E+02
 20
-1.50864941E+01
 11
-1.69260000E+02
 21
-1.56964941E+01
  0
LINE
  8
0
 62
7
 10
-1.68900000E+02
 20
-2.20864941E+01
 11
-1.69260000E+02
 21
-2.14664941E+01
  0
LINE
  8
0
 62
7
 10
-1.69250000E+02
 20
-1.25864941E+01
 11
-1.69250000E+02
 21
-2.45864941E+01
  0
LINE
  8
0
 62
7
 10
-1.66850000E+02
 20
-2.05864941E+01
 11
-1.63750000E+02
 21
-2.05864941E+01
  0
LINE
  8
0
 62
2
 10
-1.66850000E+02
 20
-2.02364941E+01
 11
-1.65250000E+02
 21
-2.02364941E+01
  0
LINE
  8
0
 62
2
 10
-1.66850000E+02
 20
-1.69364941E+01
 11
-1.65250000E+02
 21
-1.69364941E+01
  0
LINE
  8
0
 62
7
 10
-1.66850000E+02
 20
-1.65864941E+01
 11
-1.63750000E+02
 21
-1.65864941E+01
  0
LINE
  8
0
 62
2
 10
-1.65250000E+02
 20
-2.02364941E+01
 11
-1.64640000E+02
 21
-2.05864941E+01
  0
LINE
  8
0
 62
2
 10
-1.65250000E+02
 20
-1.69364941E+01
 11
-1.64640000E+02
 21
-1.65864941E+01
  0
LINE
  8
0
 62
7
 10
-1.63750000E+02
 20
-1.65864941E+01
 11
-1.63750000E+02
 21
-2.05864941E+01
  0
LINE
  8
0
 62
7
 10
-1.65250000E+02
 20
-1.65864941E+01
 11
-1.65250000E+02
 21
-2.05864941E+01
  0
LINE
  8
0
  6
PHANTOM
 10
1.69169927E+02
 20
-1.40517271E+00
 11
1.69169927E+02
 21
8.59879462E+01
  0
LINE
  8
0
 62
7
 10
1.81424927E+02
 20
6.54591408E+01
 11
1.81424927E+02
 21
5.14591408E+01
  0
LINE
  8
0
 62
7
 10
1.52424927E+02
 20
5.13561698E+01
 11
1.52424927E+02
 21
5.04137817E+01
  0
LINE
  8
0
 62
7
 10
1.23422277E+02
 20
3.21140614E+01
 11
1.18424927E+02
 21
3.21140614E+01
  0
LINE
  8
0
 62
7
 10
1.23422868E+02
 20
4.29140614E+01
 11
1.18424927E+02
 21
4.29140614E+01
  0
LINE
  8
0
 62
4
 10
1.91424927E+02
 20
2.50140614E+01
 11
1.09424927E+02
 21
2.50140614E+01
  0
LINE
  8
0
 62
7
 10
1.84414927E+02
 20
2.89140614E+01
 11
1.18424927E+02
 21
2.89140614E+01
  0
LINE
  8
0
 62
7
 10
1.84414927E+02
 20
3.21140614E+01
 11
1.29419508E+02
 21
3.21140614E+01
  0
LINE
  8
0
 62
7
 10
1.84414927E+02
 20
4.29140614E+01
 11
1.29418917E+02
 21
4.29140614E+01
  0
LINE
  8
0
 62
7
 10
1.84414927E+02
 20
4.61140614E+01
 11
1.18424927E+02
 21
4.61140614E+01
  0
LINE
  8
0
 62
7
 10
1.84414927E+02
 20
4.80140614E+01
 11
1.18424927E+02
 21
4.80140614E+01
  0
LINE
  8
0
 62
7
 10
1.84414927E+02
 20
5.07182245E+01
 11
1.52424927E+02
 21
5.07182245E+01
  0
LINE
  8
0
 62
7
 10
1.45174927E+02
 20
5.09131992E+01
 11
1.25674927E+02
 21
5.09131992E+01
  0
LINE
  8
0
 62
7
 10
1.81424927E+02
 20
5.14591408E+01
 11
1.11424927E+02
 21
5.14591408E+01
  0
LINE
  8
0
 62
7
 10
1.81424927E+02
 20
6.54591408E+01
 11
1.11424927E+02
 21
6.54591408E+01
  0
LINE
  8
0
 62
7
 10
1.81424927E+02
 20
5.65140614E+01
 11
1.84414927E+02
 21
5.65140614E+01
  0
LINE
  8
0
 62
7
 10
1.52424927E+02
 20
5.04137817E+01
 11
1.18424927E+02
 21
5.04137817E+01
  0
LINE
  8
0
  6
CENTER
 62
2
 10
1.26424927E+02
 20
4.71040614E+01
 11
1.26424927E+02
 21
2.73965837E+01
  0
LINE
  8
0
 62
7
 10
1.84414927E+02
 20
5.65140614E+01
 11
1.84414927E+02
 21
2.50140614E+01
  0
LINE
  8
0
  6
CENTER
 62
2
 10
1.22184927E+02
 20
3.20140614E+01
 11
1.30104927E+02
 21
3.20140614E+01
  0
LINE
  8
0
  6
CENTER
 62
2
 10
1.22294927E+02
 20
4.30140614E+01
 11
1.30104927E+02
 21
4.30140614E+01
  0
LINE
  8
0
 62
7
 10
1.18424927E+02
 20
5.13561698E+01
 11
1.18424927E+02
 21
2.50140614E+01
  0
LINE
  8
0
  6
CENTER
 62
2
 10
1.01802589E+02
 20
3.75140614E+01
 11
1.86898627E+02
 21
3.75140614E+01
  0
CIRCLE
  8
0
 62
7
 10
1.26420893E+02
 20
4.30229170E+01
 40
3.00000000E+00
  0
CIRCLE
  8
0
 62
7
 10
1.26420893E+02
 20
3.20229170E+01
 40
3.00000000E+00
  0
CIRCLE
  8
0
 62
7
 10
1.26420893E+02
 20
4.30229170E+01
 40
1.69999981E+00
  0
CIRCLE
  8
0
 62
7
 10
1.26420893E+02
 20
3.20229170E+01
 40
1.69999981E+00
  0
LINE
  8
0
 62
7
 10
1.45174927E+02
 20
5.14591408E+01
 11
1.45174927E+02
 21
5.04137817E+01
  0
LINE
  8
0
 62
7
 10
1.25674927E+02
 20
5.14591408E+01
 11
1.25674927E+02
 21
5.04137817E+01
  0
LINE
  8
0
 62
7
 10
1.41724927E+02
 20
5.14591408E+01
 11
1.41724927E+02
 21
5.04137817E+01
  0
LINE
  8
0
 62
7
 10
1.29124927E+02
 20
5.14591408E+01
 11
1.29124927E+02
 21
5.04137817E+01
  0
ARC
  8
0
 62
7
 10
1.13187649E+02
 20
3.44815391E+01
 40
1.63465466E+00
 50
3.21951778E+02
 51
3.91716323E+01
  0
ARC
  8
0
 62
7
 10
1.13187548E+02
 20
4.05515237E+01
 40
1.63785767E+00
 50
3.20696632E+02
 51
3.81854377E+01
  0
ARC
  8
0
 62
7
 10
1.14054167E+02
 20
3.44816179E+01
 40
1.62838117E+00
 50
1.40651875E+02
 51
2.18224714E+02
  0
ARC
  8
0
 62
7
 10
1.08812567E+02
 20
3.75140614E+01
 40
6.01462087E+00
 50
3.40578015E+02
 51
1.94219853E+01
  0
ARC
  8
0
 62
7
 10
1.18429248E+02
 20
3.75140614E+01
 40
6.00704056E+00
 50
1.60552520E+02
 51
1.99447480E+02
  0
ARC
  8
0
 62
7
 10
1.14054268E+02
 20
4.05514452E+01
 40
1.63159634E+00
 50
1.41637910E+02
 51
2.19480021E+02
  0
LINE
  8
0
 62
7
 10
1.11424927E+02
 20
4.35140614E+01
 11
1.12424927E+02
 21
4.35140614E+01
  0
LINE
  8
0
 62
7
 10
1.11424927E+02
 20
3.15140614E+01
 11
1.12424927E+02
 21
3.15140614E+01
  0
LINE
  8
0
 62
7
 10
1.11424927E+02
 20
6.54591408E+01
 11
1.11424927E+02
 21
2.65238322E+01
  0
LINE
  8
0
 62
7
 10
1.05424927E+02
 20
6.52238322E+01
 11
1.05424927E+02
 21
2.65238322E+01
  0
LINE
  8
0
 62
7
 10
1.14824927E+02
 20
3.40840614E+01
 11
1.14474927E+02
 21
3.34740614E+01
  0
LINE
  8
0
 62
7
 10
1.14824927E+02
 20
4.09540614E+01
 11
1.14474927E+02
 21
4.15640614E+01
  0
LINE
  8
0
 62
7
 10
1.12424927E+02
 20
3.40840614E+01
 11
1.12774927E+02
 21
3.34740614E+01
  0
LINE
  8
0
 62
7
 10
1.12424927E+02
 20
4.09540614E+01
 11
1.12774927E+02
 21
4.15640614E+01
  0
LINE
  8
0
 62
7
 10
1.14824927E+02
 20
4.09540614E+01
 11
1.14824927E+02
 21
3.40840614E+01
  0
LINE
  8
0
 62
7
 10
1.12774927E+02
 20
3.34740614E+01
 11
1.14474927E+02
 21
3.34740614E+01
  0
LINE
  8
0
 62
7
 10
1.12774927E+02
 20
4.15640614E+01
 11
1.14474927E+02
 21
4.15640614E+01
  0
LINE
  8
0
 62
7
 10
1.14484927E+02
 20
3.55140614E+01
 11
1.12764927E+02
 21
3.55140614E+01
  0
LINE
  8
0
 62
7
 10
1.12764927E+02
 20
3.95140614E+01
 11
1.14484927E+02
 21
3.95140614E+01
  0
LINE
  8
0
 62
7
 10
1.14824927E+02
 20
3.55140614E+01
 11
1.17924927E+02
 21
3.55140614E+01
  0
LINE
  8
0
 62
2
 10
1.14824927E+02
 20
3.58640614E+01
 11
1.16424927E+02
 21
3.58640614E+01
  0
LINE
  8
0
 62
2
 10
1.14824927E+02
 20
3.91640614E+01
 11
1.16424927E+02
 21
3.91640614E+01
  0
LINE
  8
0
 62
7
 10
1.14824927E+02
 20
3.95140614E+01
 11
1.17924927E+02
 21
3.95140614E+01
  0
LINE
  8
0
 62
7
 10
1.12424927E+02
 20
4.35140614E+01
 11
1.12424927E+02
 21
3.15140614E+01
  0
LINE
  8
0
 62
2
 10
1.16424927E+02
 20
3.58640614E+01
 11
1.17034927E+02
 21
3.55140614E+01
  0
LINE
  8
0
 62
2
 10
1.16424927E+02
 20
3.91640614E+01
 11
1.17034927E+02
 21
3.95140614E+01
  0
LINE
  8
0
 62
7
 10
1.17924927E+02
 20
3.55140614E+01
 11
1.18424927E+02
 21
3.50140614E+01
  0
LINE
  8
0
 62
7
 10
1.17924927E+02
 20
3.95140614E+01
 11
1.18424927E+02
 21
4.00140614E+01
  0
LINE
  8
0
 62
7
 10
1.17924927E+02
 20
3.95140614E+01
 11
1.17924927E+02
 21
3.55140614E+01
  0
LINE
  8
0
 62
7
 10
1.16424927E+02
 20
3.95140614E+01
 11
1.16424927E+02
 21
3.55140614E+01
  0
LINE
  8
0
 62
7
 10
1.05424927E+02
 20
6.52238322E+01
 11
1.11424927E+02
 21
6.52238322E+01
  0
LINE
  8
0
 62
7
 10
1.05424927E+02
 20
2.65238322E+01
 11
1.11424927E+02
 21
2.65238322E+01
  0
LINE
  8
0
  6
CENTER
 62
2
 10
1.30424927E+02
 20
6.34706988E+01
 11
1.30424927E+02
 21
5.73405148E+01
  0
LINE
  8
0
  6
CENTER
 62
2
 10
1.45424927E+02
 20
6.34706988E+01
 11
1.45424927E+02
 21
5.73405148E+01
  0
LINE
  8
0
  6
CENTER
 62
6
 10
1.60424927E+02
 20
6.34706988E+01
 11
1.60424927E+02
 21
5.73405148E+01
  0
LINE
  8
0
  6
CENTER
 62
2
 10
1.63753731E+02
 20
6.04591408E+01
 11
1.27170375E+02
 21
6.04591408E+01
  0
CIRCLE
  8
0
 62
6
 10
1.60424927E+02
 20
6.04591408E+01
 40
1.50000000E+00
  0
CIRCLE
  8
0
 62
2
 10
1.45424927E+02
 20
6.04591408E+01
 40
1.50000000E+00
  0
CIRCLE
  8
0
 62
2
 10
1.30424927E+02
 20
6.04591408E+01
 40
1.50000000E+00
  0
CIRCLE
  8
0
 62
7
 10
1.30424927E+02
 20
6.04591408E+01
 40
1.25000000E+00
  0
CIRCLE
  8
0
 62
7
 10
1.45424927E+02
 20
6.04591408E+01
 40
1.25000000E+00
  0
CIRCLE
  8
0
 62
4
 10
1.60424927E+02
 20
6.04591408E+01
 40
1.25000000E+00
  0
LINE
  8
0
 62
4
 10
1.91424927E+02
 20
2.50140614E+01
 11
1.91424927E+02
 21
1.45140614E+01
  0
LINE
  8
0
 62
4
 10
1.09424927E+02
 20
2.50140614E+01
 11
1.09424927E+02
 21
1.45140614E+01
  0
LINE
  8
0
 62
4
 10
1.91424927E+02
 20
1.45140614E+01
 11
1.09424927E+02
 21
1.45140614E+01
  0
LINE
  8
0
  6
CENTER
 62
6
 10
1.88424927E+02
 20
1.32601223E+01
 11
1.88424927E+02
 21
2.63271788E+01
  0
LINE
  8
0
  6
CENTER
 62
6
 10
1.14424927E+02
 20
1.28485614E+01
 11
1.14424927E+02
 21
2.64300690E+01
  0
LINE
  8
0
  6
DASHED
 62
6
 10
1.86724927E+02
 20
1.45140614E+01
 11
1.86724927E+02
 21
2.50140614E+01
  0
LINE
  8
0
  6
DASHED
 62
6
 10
1.90124927E+02
 20
1.45140614E+01
 11
1.90124927E+02
 21
2.50140614E+01
  0
LINE
  8
0
  6
DASHED
 62
6
 10
1.12724927E+02
 20
1.45140614E+01
 11
1.12724927E+02
 21
2.25140614E+01
  0
LINE
  8
0
  6
DASHED
 62
6
 10
1.16124927E+02
 20
1.45140614E+01
 11
1.16124927E+02
 21
2.25140614E+01
  0
LINE
  8
0
  6
DASHED
 62
6
 10
1.11424927E+02
 20
2.25140614E+01
 11
1.11424927E+02
 21
2.50140614E+01
  0
LINE
  8
0
  6
DASHED
 62
6
 10
1.17424927E+02
 20
2.25140614E+01
 11
1.17424927E+02
 21
2.50140614E+01
  0
LINE
  8
0
  6
DASHED
 62
6
 10
1.17424927E+02
 20
2.25140614E+01
 11
1.11424927E+02
 21
2.25140614E+01
  0
LINE
  8
0
 62
4
 10
5.26249268E+01
 20
2.50140614E+01
 11
5.29249268E+01
 21
2.50140614E+01
  0
LINE
  8
0
 62
4
 10
3.82249268E+01
 20
2.50140614E+01
 11
3.79249268E+01
 21
2.50140614E+01
  0
LINE
  8
0
  6
CENTER
 62
2
 10
4.53195014E+01
 20
5.77238322E+01
 11
5.24357711E+01
 21
5.77238322E+01
  0
CIRCLE
  8
0
 62
7
 10
4.89249268E+01
 20
5.77326847E+01
 40
3.00000000E+00
  0
CIRCLE
  8
0
 62
7
 10
4.89249268E+01
 20
5.77326847E+01
 40
2.75000000E+00
  0
LINE
  8
0
 62
7
 10
4.89251166E+01
 20
5.91638322E+01
 11
4.76851166E+01
 21
5.84438322E+01
  0
LINE
  8
0
 62
7
 10
4.89251166E+01
 20
5.62938322E+01
 11
4.76851166E+01
 21
5.70138322E+01
  0
LINE
  8
0
 62
7
 10
5.01751166E+01
 20
5.70138322E+01
 11
4.89251166E+01
 21
5.62938322E+01
  0
LINE
  8
0
 62
7
 10
5.01751166E+01
 20
5.84438322E+01
 11
5.01751166E+01
 21
5.70138322E+01
  0
LINE
  8
0
 62
7
 10
4.89251166E+01
 20
5.91638322E+01
 11
5.01751166E+01
 21
5.84438322E+01
  0
LINE
  8
0
  6
CENTER
 62
2
 10
4.89249268E+01
 20
5.38065631E+01
 11
4.89249268E+01
 21
6.14761283E+01
  0
LINE
  8
0
 62
7
 10
4.76851166E+01
 20
5.84438322E+01
 11
4.76851166E+01
 21
5.70138322E+01
  0
LINE
  8
0
  6
CENTER
 62
2
 10
3.83195014E+01
 20
6.17238322E+01
 11
4.54357711E+01
 21
6.17238322E+01
  0
CIRCLE
  8
0
 62
7
 10
4.19249268E+01
 20
6.17326847E+01
 40
3.00000000E+00
  0
CIRCLE
  8
0
 62
7
 10
4.19249268E+01
 20
6.17326847E+01
 40
2.75000000E+00
  0
LINE
  8
0
 62
7
 10
4.19251166E+01
 20
6.31638322E+01
 11
4.06851166E+01
 21
6.24438322E+01
  0
LINE
  8
0
 62
7
 10
4.19251166E+01
 20
6.02938322E+01
 11
4.06851166E+01
 21
6.10138322E+01
  0
LINE
  8
0
 62
7
 10
4.31751166E+01
 20
6.10138322E+01
 11
4.19251166E+01
 21
6.02938322E+01
  0
LINE
  8
0
 62
7
 10
4.31751166E+01
 20
6.24438322E+01
 11
4.31751166E+01
 21
6.10138322E+01
  0
LINE
  8
0
 62
7
 10
4.19251166E+01
 20
6.31638322E+01
 11
4.31751166E+01
 21
6.24438322E+01
  0
LINE
  8
0
  6
CENTER
 62
2
 10
4.19249268E+01
 20
5.78065631E+01
 11
4.19249268E+01
 21
6.54761283E+01
  0
LINE
  8
0
 62
7
 10
4.06851166E+01
 20
6.24438322E+01
 11
4.06851166E+01
 21
6.10138322E+01
  0
CIRCLE
  8
0
 62
2
 10
4.19247369E+01
 20
4.57326878E+01
 40
1.50000000E+00
  0
CIRCLE
  8
0
 62
7
 10
4.19247369E+01
 20
4.57326878E+01
 40
1.25000000E+00
  0
CIRCLE
  8
0
 62
7
 10
4.89247369E+01
 20
4.57326878E+01
 40
1.25000000E+00
  0
CIRCLE
  8
0
 62
2
 10
4.89247369E+01
 20
4.57326878E+01
 40
1.50000000E+00
  0
CIRCLE
  8
0
 62
2
 10
4.89247369E+01
 20
2.97326878E+01
 40
1.50000000E+00
  0
CIRCLE
  8
0
 62
7
 10
4.89247369E+01
 20
2.97326878E+01
 40
1.25000000E+00
  0
CIRCLE
  8
0
 62
7
 10
4.19247369E+01
 20
2.97326878E+01
 40
1.25000000E+00
  0
CIRCLE
  8
0
 62
2
 10
4.19247369E+01
 20
2.97326878E+01
 40
1.50000000E+00
  0
CIRCLE
  8
0
 62
7
 10
4.54247369E+01
 20
3.75229170E+01
 40
3.50000000E+00
  0
LINE
  8
0
 62
7
 10
4.54249268E+01
 20
4.15640614E+01
 11
4.89249268E+01
 21
3.95440614E+01
  0
CIRCLE
  8
0
 62
7
 10
4.54247369E+01
 20
3.75229170E+01
 40
1.64999962E+00
  0
CIRCLE
  8
0
 62
2
 10
4.54247369E+01
 20
3.75229170E+01
 40
2.00000000E+00
  0
LINE
  8
0
 62
7
 10
4.54249268E+01
 20
4.15640614E+01
 11
4.19249268E+01
 21
3.95440614E+01
  0
LINE
  8
0
 62
7
 10
4.54249268E+01
 20
3.34740614E+01
 11
4.19249268E+01
 21
3.54940614E+01
  0
LINE
  8
0
 62
7
 10
4.19249268E+01
 20
3.95440614E+01
 11
4.19249268E+01
 21
3.54940614E+01
  0
LINE
  8
0
 62
7
 10
4.89249268E+01
 20
3.54940614E+01
 11
4.54249268E+01
 21
3.34740614E+01
  0
LINE
  8
0
 62
7
 10
4.89249268E+01
 20
3.95440614E+01
 11
4.89249268E+01
 21
3.54940614E+01
  0
CIRCLE
  8
0
 62
7
 10
4.54249268E+01
 20
3.75140614E+01
 40
5.00000000E+00
  0
CIRCLE
  8
0
 62
7
 10
4.54249268E+01
 20
3.75140614E+01
 40
6.00000000E+00
  0
LINE
  8
0
  6
CENTER
 62
2
 10
4.19249268E+01
 20
4.80538322E+01
 11
4.19249268E+01
 21
2.76038322E+01
  0
LINE
  8
0
  6
CENTER
 62
2
 10
4.89249268E+01
 20
4.80538322E+01
 11
4.89249268E+01
 21
2.77038322E+01
  0
LINE
  8
0
  6
CENTER
 62
2
 10
3.97749268E+01
 20
2.97238322E+01
 11
5.12349268E+01
 21
2.97238322E+01
  0
LINE
  8
0
  6
CENTER
 62
2
 10
3.96649268E+01
 20
4.57238322E+01
 11
5.11349268E+01
 21
4.57238322E+01
  0
LINE
  8
0
 62
7
 10
5.24249268E+01
 20
2.65238322E+01
 11
3.84249268E+01
 21
2.65238322E+01
  0
LINE
  8
0
 62
7
 10
5.24249268E+01
 20
6.52238322E+01
 11
3.84249268E+01
 21
6.52238322E+01
  0
LINE
  8
0
 62
7
 10
3.84249268E+01
 20
5.56140614E+01
 11
3.82249268E+01
 21
5.56140614E+01
  0
ARC
  8
0
 62
7
 10
3.82249268E+01
 20
5.53140614E+01
 40
3.00000000E-01
 50
9.00000002E+01
 51
1.80000000E+02
  0
LINE
  8
0
 62
7
 10
5.24249268E+01
 20
4.85140614E+01
 11
5.29249268E+01
 21
4.80140614E+01
  0
LINE
  8
0
 62
7
 10
5.26249268E+01
 20
2.50140614E+01
 11
3.82249268E+01
 21
2.50140614E+01
  0
LINE
  8
0
 62
7
 10
5.27249268E+01
 20
3.21140614E+01
 11
5.24249268E+01
 21
3.21140614E+01
  0
LINE
  8
0
 62
7
 10
5.29249268E+01
 20
2.89140614E+01
 11
5.24249268E+01
 21
2.89140614E+01
  0
LINE
  8
0
 62
7
 10
3.81249268E+01
 20
3.21140614E+01
 11
3.84249268E+01
 21
3.21140614E+01
  0
LINE
  8
0
 62
7
 10
3.79249268E+01
 20
2.89140614E+01
 11
3.84249268E+01
 21
2.89140614E+01
  0
LINE
  8
0
 62
7
 10
3.79249268E+01
 20
2.89140614E+01
 11
3.79249268E+01
 21
2.53140614E+01
  0
LINE
  8
0
 62
7
 10
3.81249268E+01
 20
4.29140614E+01
 11
3.84249268E+01
 21
4.29140614E+01
  0
LINE
  8
0
 62
7
 10
3.79249268E+01
 20
4.61140614E+01
 11
3.84249268E+01
 21
4.61140614E+01
  0
LINE
  8
0
 62
7
 10
5.29249268E+01
 20
4.61140614E+01
 11
5.24249268E+01
 21
4.61140614E+01
  0
LINE
  8
0
 62
7
 10
5.27249268E+01
 20
4.29140614E+01
 11
5.24249268E+01
 21
4.29140614E+01
  0
LINE
  8
0
 62
7
 10
5.29249268E+01
 20
2.89140614E+01
 11
5.29249268E+01
 21
2.53140614E+01
  0
LINE
  8
0
 62
7
 10
5.29249268E+01
 20
4.80140614E+01
 11
5.29249268E+01
 21
4.61140614E+01
  0
LINE
  8
0
 62
7
 10
3.81249268E+01
 20
4.29140614E+01
 11
3.81249268E+01
 21
3.21140614E+01
  0
LINE
  8
0
 62
7
 10
5.27249268E+01
 20
4.29140614E+01
 11
5.27249268E+01
 21
3.21140614E+01
  0
ARC
  8
0
 62
7
 10
3.82249268E+01
 20
2.53140614E+01
 40
3.00000000E-01
 50
1.80000000E+02
 51
2.70000000E+02
  0
ARC
  8
0
 62
7
 10
5.26249268E+01
 20
2.53140614E+01
 40
3.00000000E-01
 50
2.70000000E+02
 51
0.00000000E+00
  0
LINE
  8
0
 62
7
 10
3.79249268E+01
 20
5.53140614E+01
 11
3.79249268E+01
 21
4.61140614E+01
  0
LINE
  8
0
  6
CENTER
 62
2
 10
5.39028991E+01
 20
3.75140614E+01
 11
3.70412422E+01
 21
3.75140614E+01
  0
LINE
  8
0
  6
CENTER
 62
2
 10
4.54249268E+01
 20
6.84175318E+01
 11
4.54249268E+01
 21
1.18523370E+01
  0
LINE
  8
0
 62
7
 10
3.87249268E+01
 20
6.54591408E+01
 11
5.21249268E+01
 21
6.54591408E+01
  0
LINE
  8
0
 62
7
 10
3.84249268E+01
 20
6.51591408E+01
 11
3.84249268E+01
 21
2.65238322E+01
  0
LINE
  8
0
 62
7
 10
5.24249268E+01
 20
6.51591408E+01
 11
5.24249268E+01
 21
2.65238322E+01
  0
ARC
  8
0
 62
7
 10
5.21249268E+01
 20
6.51591408E+01
 40
3.00000000E-01
 50
0.00000000E+00
 51
9.00000002E+01
  0
ARC
  8
0
 62
7
 10
3.87249268E+01
 20
6.51591408E+01
 40
3.00000000E-01
 50
9.00000002E+01
 51
1.80000000E+02
  0
LINE
  8
0
 62
4
 10
5.29249268E+01
 20
2.50140614E+01
 11
5.29249268E+01
 21
1.45140614E+01
  0
LINE
  8
0
 62
4
 10
3.79249268E+01
 20
2.50140614E+01
 11
3.79249268E+01
 21
1.45140614E+01
  0
LINE
  8
0
 62
4
 10
5.29249268E+01
 20
1.45140614E+01
 11
3.79249268E+01
 21
1.45140614E+01
  0
LINE
  8
0
  6
CENTER
 62
6
 10
4.85307808E+01
 20
2.05140614E+01
 11
4.20476640E+01
 21
2.05140614E+01
  0
CIRCLE
  8
0
 62
4
 10
4.54249268E+01
 20
2.05140614E+01
 40
1.50000000E+00
  0
LINE
  8
0
 62
4
 10
2.42624927E+02
 20
2.50140614E+01
 11
2.42924927E+02
 21
2.50140614E+01
  0
LINE
  8
0
 62
4
 10
2.28224927E+02
 20
2.50140614E+01
 11
2.27924927E+02
 21
2.50140614E+01
  0
CIRCLE
  8
0
 62
7
 10
2.35424737E+02
 20
3.75228712E+01
 40
6.30000019E+00
  0
ARC
  8
0
 62
7
 10
2.35424927E+02
 20
3.75228712E+01
 40
7.49393388E+00
 50
6.80599943E+01
 51
1.11940005E+02
  0
ARC
  8
0
 62
7
 10
2.35424927E+02
 20
3.75229628E+01
 40
7.50108714E+00
 50
2.48082001E+02
 51
2.91917999E+02
  0
CIRCLE
  8
0
 62
7
 10
2.35424737E+02
 20
3.75228712E+01
 40
4.89999962E+00
  0
CIRCLE
  8
0
 62
7
 10
2.35424737E+02
 20
3.75229170E+01
 40
5.39999962E+00
  0
LINE
  8
0
 62
7
 10
2.42324927E+02
 20
3.21140614E+01
 11
2.42324927E+02
 21
2.88140614E+01
  0
LINE
  8
0
 62
7
 10
2.28524927E+02
 20
3.21140614E+01
 11
2.28524927E+02
 21
2.88140614E+01
  0
LINE
  8
0
 62
7
 10
2.28524927E+02
 20
4.61140614E+01
 11
2.28524927E+02
 21
4.28140614E+01
  0
LINE
  8
0
 62
7
 10
2.42324927E+02
 20
4.61140614E+01
 11
2.42324927E+02
 21
4.28140614E+01
  0
LINE
  8
0
 62
7
 10
2.28524927E+02
 20
5.14591408E+01
 11
2.28524927E+02
 21
4.86140614E+01
  0
LINE
  8
0
 62
7
 10
2.42324927E+02
 20
5.64591408E+01
 11
2.42324927E+02
 21
5.56140614E+01
  0
LINE
  8
0
 62
7
 10
2.28424927E+02
 20
6.51591408E+01
 11
2.28424927E+02
 21
5.14591408E+01
  0
LINE
  8
0
 62
7
 10
2.42424927E+02
 20
6.51591408E+01
 11
2.42424927E+02
 21
5.64591408E+01
  0
LINE
  8
0
 62
7
 10
2.42424927E+02
 20
5.64591408E+01
 11
2.41643000E+02
 21
5.64591408E+01
  0
LINE
  8
0
 62
7
 10
2.31248329E+02
 20
5.37416264E+01
 11
2.35137416E+02
 21
5.76307136E+01
  0
LINE
  8
0
 62
7
 10
2.35490969E+02
 20
5.72771603E+01
 11
2.38177975E+02
 21
5.99641660E+01
  0
LINE
  8
0
 62
7
 10
2.42124927E+02
 20
6.54591408E+01
 11
2.28724927E+02
 21
6.54591408E+01
  0
LINE
  8
0
 62
7
 10
2.41683000E+02
 20
5.64591408E+01
 11
2.38177975E+02
 21
5.99641660E+01
  0
LINE
  8
0
 62
7
 10
2.29672950E+02
 20
5.14591408E+01
 11
2.28424927E+02
 21
5.14591408E+01
  0
LINE
  8
0
 62
7
 10
2.29672950E+02
 20
5.14591408E+01
 11
2.31601882E+02
 21
5.33880730E+01
  0
LINE
  8
0
 62
7
 10
2.31601882E+02
 20
5.33880730E+01
 11
2.31248329E+02
 21
5.37416264E+01
  0
LINE
  8
0
  6
CENTER
 62
2
 10
2.37171387E+02
 20
6.17591408E+01
 11
2.32606624E+02
 21
6.17591408E+01
  0
LINE
  8
0
  6
CENTER
 62
2
 10
2.34876628E+02
 20
6.38714675E+01
 11
2.34876628E+02
 21
5.94657423E+01
  0
CIRCLE
  8
0
 62
7
 10
2.34876628E+02
 20
6.17591408E+01
 40
1.50000000E+00
  0
LINE
  8
0
 62
7
 10
2.41606045E+02
 20
5.56140614E+01
 11
2.41854930E+02
 21
5.58629467E+01
  0
CIRCLE
  8
0
 62
2
 10
2.35424927E+02
 20
2.80140614E+01
 40
1.50000000E+00
  0
CIRCLE
  8
0
 62
7
 10
2.35424927E+02
 20
2.80140614E+01
 40
1.25000000E+00
  0
CIRCLE
  8
0
 62
2
 10
2.35424927E+02
 20
4.70140614E+01
 40
1.50000000E+00
  0
CIRCLE
  8
0
 62
7
 10
2.35424927E+02
 20
4.70140614E+01
 40
1.25000000E+00
  0
LINE
  8
0
  6
CENTER
 62
2
 10
2.33420060E+02
 20
4.70140614E+01
 11
2.38103924E+02
 21
4.70140614E+01
  0
LINE
  8
0
  6
CENTER
 62
2
 10
2.35424927E+02
 20
6.84715578E+01
 11
2.35424927E+02
 21
1.14816193E+01
  0
LINE
  8
0
  6
CENTER
 62
2
 10
2.26946954E+02
 20
3.75140614E+01
 11
2.43808611E+02
 21
3.75140614E+01
  0
LINE
  8
0
  6
CENTER
 62
2
 10
2.33233792E+02
 20
2.80140614E+01
 11
2.37513114E+02
 21
2.80140614E+01
  0
LINE
  8
0
 62
7
 10
2.42924927E+02
 20
5.53140614E+01
 11
2.42924927E+02
 21
4.61140614E+01
  0
LINE
  8
0
 62
7
 10
2.39679699E+02
 20
5.55261935E+01
 11
2.33086806E+02
 21
4.89333002E+01
  0
ARC
  8
0
 62
7
 10
2.30753354E+02
 20
5.04182245E+01
 40
3.00000000E-01
 50
4.50000000E+01
 51
1.35000000E+02
  0
ARC
  8
0
 62
7
 10
2.32874674E+02
 20
4.91454323E+01
 40
3.00000000E-01
 50
2.25000000E+02
 51
3.15000000E+02
  0
ARC
  8
0
 62
7
 10
2.28224927E+02
 20
2.53140614E+01
 40
3.00000000E-01
 50
1.80000000E+02
 51
2.70000000E+02
  0
ARC
  8
0
 62
7
 10
2.42624927E+02
 20
2.53140614E+01
 40
3.00000000E-01
 50
2.70000000E+02
 51
0.00000000E+00
  0
LINE
  8
0
 62
7
 10
2.28124927E+02
 20
4.29140614E+01
 11
2.28124927E+02
 21
3.21140614E+01
  0
LINE
  8
0
 62
7
 10
2.42724927E+02
 20
4.29140614E+01
 11
2.42724927E+02
 21
3.21140614E+01
  0
LINE
  8
0
 62
7
 10
2.30965486E+02
 20
5.06303565E+01
 11
2.32662542E+02
 21
4.89333002E+01
  0
LINE
  8
0
 62
7
 10
2.27924927E+02
 20
4.80140614E+01
 11
2.27924927E+02
 21
4.61140614E+01
  0
LINE
  8
0
 62
7
 10
2.27924927E+02
 20
2.89140614E+01
 11
2.27924927E+02
 21
2.53140614E+01
  0
LINE
  8
0
 62
7
 10
2.28124927E+02
 20
4.29140614E+01
 11
2.28424927E+02
 21
4.29140614E+01
  0
LINE
  8
0
 62
7
 10
2.28924927E+02
 20
4.24140614E+01
 11
2.28424927E+02
 21
4.29140614E+01
  0
LINE
  8
0
 62
7
 10
2.28924927E+02
 20
4.24140614E+01
 11
2.30524927E+02
 21
4.24140614E+01
  0
LINE
  8
0
 62
7
 10
2.28924927E+02
 20
4.66140614E+01
 11
2.30524927E+02
 21
4.66140614E+01
  0
LINE
  8
0
 62
7
 10
2.28924927E+02
 20
4.66140614E+01
 11
2.28424927E+02
 21
4.61140614E+01
  0
LINE
  8
0
 62
7
 10
2.27924927E+02
 20
4.61140614E+01
 11
2.28424927E+02
 21
4.61140614E+01
  0
LINE
  8
0
 62
7
 10
2.42924927E+02
 20
4.61140614E+01
 11
2.42424927E+02
 21
4.61140614E+01
  0
LINE
  8
0
 62
7
 10
2.41924927E+02
 20
4.66140614E+01
 11
2.42424927E+02
 21
4.61140614E+01
  0
LINE
  8
0
 62
7
 10
2.41924927E+02
 20
4.66140614E+01
 11
2.40324927E+02
 21
4.66140614E+01
  0
LINE
  8
0
 62
7
 10
2.41924927E+02
 20
4.24140614E+01
 11
2.40324927E+02
 21
4.24140614E+01
  0
LINE
  8
0
 62
7
 10
2.41924927E+02
 20
4.24140614E+01
 11
2.42424927E+02
 21
4.29140614E+01
  0
LINE
  8
0
 62
7
 10
2.42724927E+02
 20
4.29140614E+01
 11
2.42424927E+02
 21
4.29140614E+01
  0
LINE
  8
0
 62
7
 10
2.42924927E+02
 20
2.89140614E+01
 11
2.42924927E+02
 21
2.53140614E+01
  0
LINE
  8
0
 62
7
 10
2.42924927E+02
 20
2.89140614E+01
 11
2.42424927E+02
 21
2.89140614E+01
  0
LINE
  8
0
 62
7
 10
2.41924927E+02
 20
2.84140614E+01
 11
2.42424927E+02
 21
2.89140614E+01
  0
LINE
  8
0
 62
7
 10
2.41924927E+02
 20
2.84140614E+01
 11
2.40324927E+02
 21
2.84140614E+01
  0
LINE
  8
0
 62
7
 10
2.41924927E+02
 20
3.26140614E+01
 11
2.40324927E+02
 21
3.26140614E+01
  0
LINE
  8
0
 62
7
 10
2.41924927E+02
 20
3.26140614E+01
 11
2.42424927E+02
 21
3.21140614E+01
  0
LINE
  8
0
 62
7
 10
2.42724927E+02
 20
3.21140614E+01
 11
2.42424927E+02
 21
3.21140614E+01
  0
LINE
  8
0
 62
7
 10
2.28924927E+02
 20
2.84140614E+01
 11
2.30524927E+02
 21
2.84140614E+01
  0
LINE
  8
0
 62
7
 10
2.28924927E+02
 20
2.84140614E+01
 11
2.28424927E+02
 21
2.89140614E+01
  0
LINE
  8
0
 62
7
 10
2.27924927E+02
 20
2.89140614E+01
 11
2.28424927E+02
 21
2.89140614E+01
  0
LINE
  8
0
 62
7
 10
2.28924927E+02
 20
3.26140614E+01
 11
2.28424927E+02
 21
3.21140614E+01
  0
LINE
  8
0
 62
7
 10
2.28124927E+02
 20
3.21140614E+01
 11
2.28424927E+02
 21
3.21140614E+01
  0
LINE
  8
0
 62
7
 10
2.28924927E+02
 20
3.26140614E+01
 11
2.30524927E+02
 21
3.26140614E+01
  0
LINE
  8
0
 62
7
 10
2.28224927E+02
 20
2.50140614E+01
 11
2.42624927E+02
 21
2.50140614E+01
  0
ARC
  8
0
 62
7
 10
2.30524927E+02
 20
3.05140614E+01
 40
2.10000003E+00
 50
2.70000000E+02
 51
9.00000002E+01
  0
ARC
  8
0
 62
7
 10
2.30524927E+02
 20
4.45140614E+01
 40
2.10000003E+00
 50
2.70000000E+02
 51
9.00000002E+01
  0
ARC
  8
0
 62
7
 10
2.40324927E+02
 20
4.45140614E+01
 40
2.10000000E+00
 50
9.00000002E+01
 51
2.70000000E+02
  0
ARC
  8
0
 62
7
 10
2.40324927E+02
 20
3.05140614E+01
 40
2.10000000E+00
 50
9.00000002E+01
 51
2.70000000E+02
  0
LINE
  8
0
 62
7
 10
2.30541222E+02
 20
5.06303565E+01
 11
2.27924927E+02
 21
4.80140614E+01
  0
ARC
  8
0
 62
7
 10
2.39891832E+02
 20
5.53140614E+01
 40
3.00000000E-01
 50
9.00000002E+01
 51
1.35000000E+02
  0
ARC
  8
0
 62
7
 10
2.42624927E+02
 20
5.53140614E+01
 40
3.00000000E-01
 50
0.00000000E+00
 51
9.00000002E+01
  0
LINE
  8
0
 62
7
 10
2.39891832E+02
 20
5.56140614E+01
 11
2.42624927E+02
 21
5.56140614E+01
  0
LINE
  8
0
 62
7
 10
2.37753711E+02
 20
5.50144186E+01
 11
2.34218177E+02
 21
5.14788847E+01
  0
LINE
  8
0
 62
7
 10
2.31601882E+02
 20
5.40951797E+01
 11
2.34218177E+02
 21
5.14788847E+01
  0
LINE
  8
0
 62
7
 10
2.35137416E+02
 20
5.76307136E+01
 11
2.37753711E+02
 21
5.50144186E+01
  0
LINE
  8
0
 62
7
 10
2.32308989E+02
 20
5.33880730E+01
 11
2.29834115E+02
 21
5.09131992E+01
  0
LINE
  8
0
 62
7
 10
2.38319396E+02
 20
5.93984806E+01
 11
2.35844523E+02
 21
5.69236069E+01
  0
LINE
  8
0
 62
7
 10
2.29834115E+02
 20
5.09131992E+01
 11
2.30329090E+02
 21
5.04182245E+01
  0
LINE
  8
0
 62
7
 10
2.38319396E+02
 20
5.93984806E+01
 11
2.41854930E+02
 21
5.58629467E+01
  0
LINE
  8
0
  6
CENTER
 62
2
 10
2.23760272E+02
 20
4.45140614E+01
 11
2.43808611E+02
 21
4.45140614E+01
  0
LINE
  8
0
  6
CENTER
 62
2
 10
2.24007690E+02
 20
3.05140614E+01
 11
2.43808611E+02
 21
3.05140614E+01
  0
ARC
  8
0
 62
7
 10
2.42124927E+02
 20
6.51591408E+01
 40
3.00000000E-01
 50
0.00000000E+00
 51
9.00000002E+01
  0
ARC
  8
0
 62
7
 10
2.28724927E+02
 20
6.51591408E+01
 40
3.00000000E-01
 50
9.00000002E+01
 51
1.80000000E+02
  0
LINE
  8
0
 62
4
 10
2.42924927E+02
 20
2.50140614E+01
 11
2.42924927E+02
 21
1.45140614E+01
  0
LINE
  8
0
 62
4
 10
2.27924927E+02
 20
2.50140614E+01
 11
2.27924927E+02
 21
1.45140614E+01
  0
LINE
  8
0
 62
4
 10
2.27924927E+02
 20
1.45140614E+01
 11
2.42924927E+02
 21
1.45140614E+01
  0
CIRCLE
  8
0
 62
2
 10
2.35424927E+02
 20
3.75140614E+01
 40
1.50000000E+00
  0
CIRCLE
  8
0
 62
7
 10
2.35424927E+02
 20
3.75140614E+01
 40
1.25000000E+00
  0
LINE
  8
0
  6
CENTER
 62
6
 10
2.32651593E+02
 20
2.05140614E+01
 11
2.38411593E+02
 21
2.05140614E+01
  0
CIRCLE
  8
0
 62
4
 10
2.35424927E+02
 20
2.05140614E+01
 40
1.25000000E+00
  0
CIRCLE
  8
0
 62
6
 10
2.35424927E+02
 20
2.05140614E+01
 40
1.50000000E+00
  0
LINE
  8
0
  6
PHANTOM
 10
1.69169927E+02
 20
8.59879462E+01
 11
1.69169927E+02
 21
1.35048854E+02
  0
LINE
  8
0
 62
7
 10
1.81424927E+02
 20
1.18403506E+02
 11
1.81424927E+02
 21
1.04403506E+02
  0
LINE
  8
0
 62
7
 10
1.81424927E+02
 20
1.18403506E+02
 11
1.05424927E+02
 21
1.18403506E+02
  0
LINE
  8
0
 62
7
 10
1.81424927E+02
 20
1.04403506E+02
 11
1.05424927E+02
 21
1.04403506E+02
  0
LINE
  8
0
 62
7
 10
1.84414927E+02
 20
1.03903506E+02
 11
1.18424927E+02
 21
1.03903506E+02
  0
LINE
  8
0
 62
7
 10
1.84414927E+02
 20
1.18903506E+02
 11
1.18424927E+02
 21
1.18903506E+02
  0
LINE
  8
0
  6
CENTER
 62
2
 10
1.02940944E+02
 20
1.11403506E+02
 11
1.95029602E+02
 21
1.11403506E+02
  0
LINE
  8
0
 62
7
 10
1.18424927E+02
 20
1.18903506E+02
 11
1.18424927E+02
 21
1.18403506E+02
  0
LINE
  8
0
 62
7
 10
1.84414927E+02
 20
1.18903506E+02
 11
1.84414927E+02
 21
1.03903506E+02
  0
LINE
  8
0
 62
7
 10
1.11424927E+02
 20
1.18403506E+02
 11
1.11424927E+02
 21
1.04403506E+02
  0
LINE
  8
0
 62
7
 10
1.18424927E+02
 20
1.04403506E+02
 11
1.18424927E+02
 21
1.03903506E+02
  0
CIRCLE
  8
0
 62
2
 10
1.25424927E+02
 20
1.15403506E+02
 40
1.50000000E+00
  0
CIRCLE
  8
0
 62
2
 10
1.35424927E+02
 20
1.15403506E+02
 40
1.50000000E+00
  0
LINE
  8
0
  6
CENTER
 62
2
 10
1.22260771E+02
 20
1.15403506E+02
 11
1.54348055E+02
 21
1.15403506E+02
  0
LINE
  8
0
  6
CENTER
 62
2
 10
1.35424927E+02
 20
1.17598223E+02
 11
1.35424927E+02
 21
1.05143563E+02
  0
LINE
  8
0
  6
CENTER
 62
2
 10
1.25424927E+02
 20
1.17598223E+02
 11
1.25424927E+02
 21
1.05143563E+02
  0
LINE
  8
0
  6
CENTER
 62
2
 10
1.50424927E+02
 20
1.17598223E+02
 11
1.50424927E+02
 21
1.05143563E+02
  0
CIRCLE
  8
0
 62
2
 10
1.50424927E+02
 20
1.15403506E+02
 40
1.50000000E+00
  0
CIRCLE
  8
0
 62
7
 10
1.50424927E+02
 20
1.15403506E+02
 40
1.25000000E+00
  0
CIRCLE
  8
0
 62
7
 10
1.35424927E+02
 20
1.15403506E+02
 40
1.25000000E+00
  0
CIRCLE
  8
0
 62
7
 10
1.25424927E+02
 20
1.15403506E+02
 40
1.25000000E+00
  0
CIRCLE
  8
0
 62
2
 10
1.25424927E+02
 20
1.07403506E+02
 40
1.50000000E+00
  0
CIRCLE
  8
0
 62
2
 10
1.35424927E+02
 20
1.07403506E+02
 40
1.50000000E+00
  0
CIRCLE
  8
0
 62
7
 10
1.35424927E+02
 20
1.07403506E+02
 40
1.25000000E+00
  0
CIRCLE
  8
0
 62
7
 10
1.25424927E+02
 20
1.07403506E+02
 40
1.25000000E+00
  0
LINE
  8
0
  6
CENTER
 62
2
 10
1.22260771E+02
 20
1.07403506E+02
 11
1.53811132E+02
 21
1.07403506E+02
  0
CIRCLE
  8
0
 62
2
 10
1.50424927E+02
 20
1.07403506E+02
 40
1.50000000E+00
  0
CIRCLE
  8
0
 62
7
 10
1.50424927E+02
 20
1.07403506E+02
 40
1.25000000E+00
  0
LINE
  8
0
 62
7
 10
1.05424927E+02
 20
1.18403506E+02
 11
1.05424927E+02
 21
1.04403506E+02
  0
LINE
  8
0
 62
7
 10
1.84414927E+02
 20
1.15746147E+02
 11
1.81424927E+02
 21
1.15746147E+02
  0
LINE
  8
0
 62
7
 10
1.84414927E+02
 20
1.08853253E+02
 11
1.81424927E+02
 21
1.08853253E+02
  0
LINE
  8
0
 62
7
 10
1.84414927E+02
 20
1.06731933E+02
 11
1.81424927E+02
 21
1.06731933E+02
  0
LINE
  8
0
 62
4
 10
1.84414927E+02
 20
1.18903506E+02
 11
1.91424927E+02
 21
1.18903506E+02
  0
LINE
  8
0
 62
4
 10
1.84414927E+02
 20
1.03903506E+02
 11
1.91424927E+02
 21
1.03903506E+02
  0
LINE
  8
0
 62
4
 10
1.91424927E+02
 20
1.18903506E+02
 11
1.91424927E+02
 21
1.03903506E+02
  0
LINE
  8
0
 62
4
 10
1.18424927E+02
 20
1.18903506E+02
 11
1.09424927E+02
 21
1.18903506E+02
  0
LINE
  8
0
 62
4
 10
1.18424927E+02
 20
1.03903506E+02
 11
1.09424927E+02
 21
1.03903506E+02
  0
LINE
  8
0
 62
4
 10
1.09424927E+02
 20
1.18903506E+02
 11
1.09424927E+02
 21
1.18403506E+02
  0
LINE
  8
0
 62
4
 10
1.09424927E+02
 20
1.04403506E+02
 11
1.09424927E+02
 21
1.03903506E+02
  0
LINE
  8
0
  6
CENTER
 62
6
 10
1.88424927E+02
 20
1.13253856E+02
 11
1.88424927E+02
 21
1.18748076E+02
  0
LINE
  8
0
  6
CENTER
 62
6
 10
1.85612318E+02
 20
1.15903506E+02
 11
1.91179310E+02
 21
1.15903506E+02
  0
CIRCLE
  8
0
 62
4
 10
1.88424927E+02
 20
1.15903506E+02
 40
1.70000000E+00
  0
LINE
  8
0
  6
PHANTOM
 10
1.69169927E+02
 20
-4.64258703E+01
 11
1.69169927E+02
 21
-1.40517271E+00
  0
LINE
  8
0
 62
7
 10
1.09424927E+02
 20
-3.55864941E+01
 11
1.05424927E+02
 21
-3.55864941E+01
  0
LINE
  8
0
 62
7
 10
1.09424927E+02
 20
-2.15864941E+01
 11
1.05424927E+02
 21
-2.15864941E+01
  0
LINE
  8
0
  6
CENTER
 62
2
 10
1.03058347E+02
 20
-2.85864941E+01
 11
1.93679992E+02
 21
-2.85864941E+01
  0
LINE
  8
0
  6
CENTER
 62
6
 10
1.21424927E+02
 20
-2.73755785E+01
 11
1.21424927E+02
 21
-3.74469936E+01
  0
LINE
  8
0
  6
CENTER
 62
6
 10
1.79414927E+02
 20
-2.02502236E+01
 11
1.79414927E+02
 21
-2.88828651E+01
  0
LINE
  8
0
  6
CENTER
 62
6
 10
1.17154526E+02
 20
-3.25864941E+01
 11
1.26129732E+02
 21
-3.25864941E+01
  0
LINE
  8
0
  6
CENTER
 62
6
 10
1.75185060E+02
 20
-2.45864941E+01
 11
1.83954728E+02
 21
-2.45864941E+01
  0
LINE
  8
0
 62
7
 10
1.05424927E+02
 20
-2.15864941E+01
 11
1.05424927E+02
 21
-3.55864941E+01
  0
LINE
  8
0
 62
4
 10
1.09424927E+02
 20
-2.10864941E+01
 11
1.09424927E+02
 21
-3.60864941E+01
  0
LINE
  8
0
 62
4
 10
1.91424927E+02
 20
-2.10864941E+01
 11
1.91424927E+02
 21
-3.60864941E+01
  0
LINE
  8
0
 62
4
 10
1.09424927E+02
 20
-2.10864941E+01
 11
1.91424927E+02
 21
-2.10864941E+01
  0
LINE
  8
0
 62
4
 10
1.09424927E+02
 20
-3.60864941E+01
 11
1.91424927E+02
 21
-3.60864941E+01
  0
CIRCLE
  8
0
 62
4
 10
1.21424927E+02
 20
-3.25864941E+01
 40
3.00000000E+00
  0
CIRCLE
  8
0
 62
4
 10
1.21424927E+02
 20
-3.25864941E+01
 40
2.75000000E+00
  0
LINE
  8
0
 62
4
 10
1.22724927E+02
 20
-3.18359388E+01
 11
1.21424927E+02
 21
-3.10853834E+01
  0
LINE
  8
0
 62
4
 10
1.22724927E+02
 20
-3.33370495E+01
 11
1.22724927E+02
 21
-3.18359388E+01
  0
LINE
  8
0
 62
4
 10
1.21424927E+02
 20
-3.40876048E+01
 11
1.22724927E+02
 21
-3.33370495E+01
  0
LINE
  8
0
 62
4
 10
1.20124927E+02
 20
-3.33370495E+01
 11
1.21424927E+02
 21
-3.40876048E+01
  0
LINE
  8
0
 62
4
 10
1.20124927E+02
 20
-3.18359388E+01
 11
1.20124927E+02
 21
-3.33370495E+01
  0
LINE
  8
0
 62
4
 10
1.21424927E+02
 20
-3.10853834E+01
 11
1.20124927E+02
 21
-3.18359388E+01
  0
CIRCLE
  8
0
 62
4
 10
1.79414927E+02
 20
-2.45864941E+01
 40
3.00000000E+00
  0
CIRCLE
  8
0
 62
4
 10
1.79414927E+02
 20
-2.45864941E+01
 40
2.75000000E+00
  0
LINE
  8
0
 62
4
 10
1.79414927E+02
 20
-2.30853834E+01
 11
1.78114927E+02
 21
-2.38359388E+01
  0
LINE
  8
0
 62
4
 10
1.78114927E+02
 20
-2.38359388E+01
 11
1.78114927E+02
 21
-2.53370495E+01
  0
LINE
  8
0
 62
4
 10
1.78114927E+02
 20
-2.53370495E+01
 11
1.79414927E+02
 21
-2.60876048E+01
  0
LINE
  8
0
 62
4
 10
1.79414927E+02
 20
-2.60876048E+01
 11
1.80714927E+02
 21
-2.53370495E+01
  0
LINE
  8
0
 62
4
 10
1.80714927E+02
 20
-2.53370495E+01
 11
1.80714927E+02
 21
-2.38359388E+01
  0
LINE
  8
0
 62
4
 10
1.80714927E+02
 20
-2.38359388E+01
 11
1.79414927E+02
 21
-2.30853834E+01
  0
LINE
  8
0
  6
CENTER
 62
6
 10
1.14424927E+02
 20
-1.97625655E+01
 11
1.14424927E+02
 21
-2.81871759E+01
  0
LINE
  8
0
  6
CENTER
 62
6
 10
1.88424927E+02
 20
-3.00679313E+01
 11
1.88424927E+02
 21
-3.66065444E+01
  0
LINE
  8
0
  6
CENTER
 62
6
 10
1.10492774E+02
 20
-2.40864941E+01
 11
1.18530539E+02
 21
-2.40864941E+01
  0
LINE
  8
0
  6
CENTER
 62
6
 10
1.85195144E+02
 20
-3.30864941E+01
 11
1.92252694E+02
 21
-3.30864941E+01
  0
CIRCLE
  8
0
 62
4
 10
1.88424927E+02
 20
-3.30864941E+01
 40
1.70000000E+00
  0
CIRCLE
  8
0
 62
4
 10
1.14424927E+02
 20
-2.40864941E+01
 40
1.70000000E+00
  0
CIRCLE
  8
0
  6
DASHED
 62
6
 10
1.14424927E+02
 20
-2.40864941E+01
 40
3.00000000E+00
  0
LINE
  8
0
 62
4
 10
-6.78717772E+01
 20
-1.75647330E+02
 11
-4.58717772E+01
 21
-1.75647330E+02
  0
LINE
  8
0
 62
4
 10
-6.31717772E+01
 20
-1.80247330E+02
 11
-4.58717772E+01
 21
-1.80247330E+02
  0
LINE
  8
0
 62
4
 10
-4.58717772E+01
 20
-1.75647330E+02
 11
-4.58717772E+01
 21
-1.80247330E+02
  0
LINE
  8
0
 62
4
 10
-6.78717772E+01
 20
-1.77447330E+02
 11
-6.78717772E+01
 21
-1.75647330E+02
  0
LINE
  8
0
 62
4
 10
-6.31717772E+01
 20
-1.78687330E+02
 11
-6.31717772E+01
 21
-1.80247330E+02
  0
LINE
  8
0
 62
4
 10
-6.78717772E+01
 20
-1.77447330E+02
 11
-6.36217772E+01
 21
-1.77447330E+02
  0
LINE
  8
0
  6
CENTER
 62
6
 10
-6.58717772E+01
 20
-1.74847330E+02
 11
-6.58717772E+01
 21
-1.81077330E+02
  0
LINE
  8
0
 62
4
 10
-6.36217772E+01
 20
-1.77447330E+02
 11
-6.36217772E+01
 21
-1.78687330E+02
  0
LINE
  8
0
 62
4
 10
-6.38717772E+01
 20
-1.77447330E+02
 11
-6.38717772E+01
 21
-1.78247330E+02
  0
LINE
  8
0
 62
4
 10
-6.78717772E+01
 20
-1.77447330E+02
 11
-6.78717772E+01
 21
-1.78247330E+02
  0
LINE
  8
0
 62
4
 10
-6.78717772E+01
 20
-1.78247330E+02
 11
-6.38717772E+01
 21
-1.78247330E+02
  0
LINE
  8
0
 62
4
 10
-6.36717772E+01
 20
-1.77447330E+02
 11
-6.36717772E+01
 21
-1.79447330E+02
  0
LINE
  8
0
 62
4
 10
-6.36717772E+01
 20
-1.79447330E+02
 11
-6.31717772E+01
 21
-1.79447330E+02
  0
LINE
  8
0
 62
4
 10
-6.36217772E+01
 20
-1.78687330E+02
 11
-6.31717772E+01
 21
-1.78687330E+02
  0
LINE
  8
0
 62
4
 10
-3.73717772E+01
 20
-1.76647330E+02
 11
-3.73717772E+01
 21
-1.79247330E+02
  0
LINE
  8
0
  6
CENTER
 62
6
 10
-3.91017772E+01
 20
-1.77497330E+02
 11
-2.71717772E+01
 21
-1.77497330E+02
  0
LINE
  8
0
  6
CENTER
 62
6
 10
-3.90517772E+01
 20
-1.78397330E+02
 11
-2.71217772E+01
 21
-1.78397330E+02
  0
LINE
  8
0
 62
4
 10
-2.73717772E+01
 20
-1.77247330E+02
 11
-2.73717772E+01
 21
-1.77747330E+02
  0
LINE
  8
0
 62
4
 10
-2.73717772E+01
 20
-1.78147330E+02
 11
-2.73717772E+01
 21
-1.78647330E+02
  0
LINE
  8
0
 62
4
 10
-3.03717772E+01
 20
-1.77047330E+02
 11
-3.03717772E+01
 21
-1.78847330E+02
  0
LINE
  8
0
 62
4
 10
-3.73717772E+01
 20
-1.78847330E+02
 11
-3.33717772E+01
 21
-1.78847330E+02
  0
LINE
  8
0
 62
4
 10
-3.73717772E+01
 20
-1.77947330E+02
 11
-3.38917772E+01
 21
-1.77947330E+02
  0
LINE
  8
0
 62
4
 10
-3.23917772E+01
 20
-1.77947330E+02
 11
-3.03717772E+01
 21
-1.77947330E+02
  0
LINE
  8
0
 62
4
 10
-3.18717772E+01
 20
-1.78847330E+02
 11
-3.03717772E+01
 21
-1.78847330E+02
  0
LINE
  8
0
 62
4
 10
-3.73717772E+01
 20
-1.77047330E+02
 11
-3.44117772E+01
 21
-1.77047330E+02
  0
LINE
  8
0
 62
4
 10
-3.29117772E+01
 20
-1.77047330E+02
 11
-3.03717772E+01
 21
-1.77047330E+02
  0
LINE
  8
0
 62
4
 10
-3.03717772E+01
 20
-1.77247330E+02
 11
-2.73717772E+01
 21
-1.77247330E+02
  0
LINE
  8
0
 62
4
 10
-3.03717772E+01
 20
-1.77747330E+02
 11
-2.73717772E+01
 21
-1.77747330E+02
  0
LINE
  8
0
 62
4
 10
-3.03717772E+01
 20
-1.78147330E+02
 11
-2.73717772E+01
 21
-1.78147330E+02
  0
LINE
  8
0
 62
4
 10
-3.03717772E+01
 20
-1.78647330E+02
 11
-2.73717772E+01
 21
-1.78647330E+02
  0
LINE
  8
0
 62
6
 10
-3.36417772E+01
 20
-1.75777330E+02
 11
-3.11417772E+01
 21
-1.80107330E+02
  0
LINE
  8
0
  6
CENTER
 62
6
 10
-4.71917772E+01
 20
-1.77947330E+02
 11
-3.73717772E+01
 21
-1.77947330E+02
  0
LINE
  8
0
 62
6
 10
-3.51417772E+01
 20
-1.75777330E+02
 11
-3.26417772E+01
 21
-1.80107330E+02
  0
LINE
  8
0
 62
6
 10
-4.26217772E+01
 20
-1.75777330E+02
 11
-4.01217772E+01
 21
-1.80107330E+02
  0
LINE
  8
0
 62
6
 10
-4.41217772E+01
 20
-1.75777330E+02
 11
-4.16217772E+01
 21
-1.80107330E+02
  0
LINE
  8
0
 62
4
 10
-6.69017772E+01
 20
-1.79647330E+02
 11
-6.48517772E+01
 21
-1.79647330E+02
  0
LINE
  8
0
 62
4
 10
-6.48517772E+01
 20
-1.79647330E+02
 11
-6.46217772E+01
 21
-1.79417330E+02
  0
LINE
  8
0
 62
4
 10
-6.69017772E+01
 20
-1.79647330E+02
 11
-6.71217772E+01
 21
-1.79417330E+02
  0
LINE
  8
0
 62
4
 10
-6.71217772E+01
 20
-1.78237330E+02
 11
-6.71217772E+01
 21
-1.79417330E+02
  0
LINE
  8
0
 62
6
 10
-6.69017772E+01
 20
-1.78237330E+02
 11
-6.69017772E+01
 21
-1.79647330E+02
  0
LINE
  8
0
 62
6
 10
-6.48517772E+01
 20
-1.78237330E+02
 11
-6.48517772E+01
 21
-1.79647330E+02
  0
LINE
  8
0
 62
4
 10
-6.46217772E+01
 20
-1.78237330E+02
 11
-6.46217772E+01
 21
-1.79417330E+02
  0
LINE
  8
0
 62
4
 10
-6.71217772E+01
 20
-1.79417330E+02
 11
-6.46217772E+01
 21
-1.79417330E+02
  0
LINE
  8
0
 62
4
 10
-6.71217772E+01
 20
-1.75147330E+02
 11
-6.71217772E+01
 21
-1.75647330E+02
  0
LINE
  8
0
 62
6
 10
-6.69017772E+01
 20
-1.75147330E+02
 11
-6.69017772E+01
 21
-1.75647330E+02
  0
LINE
  8
0
 62
6
 10
-6.48517772E+01
 20
-1.75147330E+02
 11
-6.48517772E+01
 21
-1.75647330E+02
  0
LINE
  8
0
 62
4
 10
-6.46217772E+01
 20
-1.75147330E+02
 11
-6.46217772E+01
 21
-1.75647330E+02
  0
LINE
  8
0
 62
4
 10
-6.71217772E+01
 20
-1.75147330E+02
 11
-6.46217772E+01
 21
-1.75147330E+02
  0
LINE
  8
0
 62
4
 10
-6.78717772E+01
 20
-1.76647330E+02
 11
-4.58717772E+01
 21
-1.76647330E+02
  0
LINE
  8
0
 62
4
 10
-6.78717772E+01
 20
-1.76097330E+02
 11
-4.58717772E+01
 21
-1.76097330E+02
  0
LINE
  8
0
 62
4
 10
-4.58717772E+01
 20
-1.76647330E+02
 11
-4.36217772E+01
 21
-1.76647330E+02
  0
LINE
  8
0
 62
4
 10
-4.58717772E+01
 20
-1.79247330E+02
 11
-4.21217772E+01
 21
-1.79247330E+02
  0
LINE
  8
0
 62
4
 10
-4.21217772E+01
 20
-1.76647330E+02
 11
-3.73717772E+01
 21
-1.76647330E+02
  0
LINE
  8
0
 62
4
 10
-4.06217772E+01
 20
-1.79247330E+02
 11
-3.73717772E+01
 21
-1.79247330E+02
  0
LINE
  8
0
  6
CENTER
 62
6
 10
-1.12414502E+02
 20
-1.73597330E+02
 11
-1.12414502E+02
 21
-1.82307330E+02
  0
LINE
  8
0
 62
4
 10
-1.14464502E+02
 20
-1.76647330E+02
 11
-1.14464502E+02
 21
-1.78197330E+02
  0
LINE
  8
0
 62
4
 10
-1.14464502E+02
 20
-1.76647330E+02
 11
-1.13914502E+02
 21
-1.76097330E+02
  0
LINE
  8
0
 62
4
 10
-1.13914502E+02
 20
-1.75647330E+02
 11
-1.13914502E+02
 21
-1.76097330E+02
  0
LINE
  8
0
 62
4
 10
-1.13914502E+02
 20
-1.75647330E+02
 11
-1.10914502E+02
 21
-1.75647330E+02
  0
LINE
  8
0
 62
4
 10
-1.10914502E+02
 20
-1.75647330E+02
 11
-1.10914502E+02
 21
-1.76097330E+02
  0
LINE
  8
0
 62
4
 10
-1.10364502E+02
 20
-1.76647330E+02
 11
-1.10914502E+02
 21
-1.76097330E+02
  0
LINE
  8
0
 62
4
 10
-1.10364502E+02
 20
-1.76647330E+02
 11
-1.10364502E+02
 21
-1.78197330E+02
  0
LINE
  8
0
 62
4
 10
-1.14464502E+02
 20
-1.77447330E+02
 11
-1.10364502E+02
 21
-1.77447330E+02
  0
LINE
  8
0
 62
4
 10
-1.14464502E+02
 20
-1.78237330E+02
 11
-1.10364502E+02
 21
-1.78237330E+02
  0
LINE
  8
0
 62
4
 10
-1.13434502E+02
 20
-1.79647330E+02
 11
-1.11394502E+02
 21
-1.79647330E+02
  0
LINE
  8
0
 62
4
 10
-1.11394502E+02
 20
-1.79647330E+02
 11
-1.11164502E+02
 21
-1.79417330E+02
  0
LINE
  8
0
 62
4
 10
-1.13434502E+02
 20
-1.79647330E+02
 11
-1.13664502E+02
 21
-1.79417330E+02
  0
LINE
  8
0
 62
4
 10
-1.13664502E+02
 20
-1.78237330E+02
 11
-1.13664502E+02
 21
-1.79417330E+02
  0
LINE
  8
0
 62
6
 10
-1.13434502E+02
 20
-1.78237330E+02
 11
-1.13434502E+02
 21
-1.79647330E+02
  0
LINE
  8
0
 62
6
 10
-1.11394502E+02
 20
-1.78237330E+02
 11
-1.11394502E+02
 21
-1.79647330E+02
  0
LINE
  8
0
 62
4
 10
-1.11164502E+02
 20
-1.78237330E+02
 11
-1.11164502E+02
 21
-1.79417330E+02
  0
LINE
  8
0
 62
4
 10
-1.13664502E+02
 20
-1.79417330E+02
 11
-1.11164502E+02
 21
-1.79417330E+02
  0
LINE
  8
0
 62
4
 10
-1.13664502E+02
 20
-1.75147330E+02
 11
-1.13664502E+02
 21
-1.75647330E+02
  0
LINE
  8
0
 62
6
 10
-1.13434502E+02
 20
-1.75147330E+02
 11
-1.13434502E+02
 21
-1.75647330E+02
  0
LINE
  8
0
 62
6
 10
-1.11394502E+02
 20
-1.75147330E+02
 11
-1.11394502E+02
 21
-1.75647330E+02
  0
LINE
  8
0
 62
4
 10
-1.11164502E+02
 20
-1.75147330E+02
 11
-1.11164502E+02
 21
-1.75647330E+02
  0
LINE
  8
0
 62
4
 10
-1.13664502E+02
 20
-1.75147330E+02
 11
-1.11164502E+02
 21
-1.75147330E+02
  0
ARC
  8
0
 62
4
 10
-1.12414500E+02
 20
-1.78197327E+02
 40
2.05000229E+00
 50
1.80000064E+02
 51
2.69999936E+02
  0
ARC
  8
0
 62
4
 10
-1.12414504E+02
 20
-1.78197327E+02
 40
2.05000229E+00
 50
2.70000064E+02
 51
3.59999936E+02
  0
LINE
  8
0
  6
CENTER
 62
6
 10
-7.06717772E+01
 20
-1.33097327E+02
 11
-4.04717772E+01
 21
-1.33097327E+02
  0
LINE
  8
0
 62
4
 10
-6.78717772E+01
 20
-1.34597327E+02
 11
-4.58717772E+01
 21
-1.34597327E+02
  0
LINE
  8
0
 62
4
 10
-6.78717772E+01
 20
-1.31597327E+02
 11
-4.58717772E+01
 21
-1.31597327E+02
  0
LINE
  8
0
 62
4
 10
-6.78717772E+01
 20
-1.35147327E+02
 11
-4.58717772E+01
 21
-1.35147327E+02
  0
LINE
  8
0
 62
4
 10
-6.78717772E+01
 20
-1.31047327E+02
 11
-4.58717772E+01
 21
-1.31047327E+02
  0
LINE
  8
0
 62
4
 10
-6.78717772E+01
 20
-1.31047327E+02
 11
-6.78717772E+01
 21
-1.35147327E+02
  0
LINE
  8
0
 62
4
 10
-4.58717772E+01
 20
-1.31047327E+02
 11
-4.58717772E+01
 21
-1.35147327E+02
  0
LINE
  8
0
  6
CENTER
 62
6
 10
-6.58717772E+01
 20
-1.30267327E+02
 11
-6.58717772E+01
 21
-1.35847327E+02
  0
LINE
  8
0
 62
4
 10
-6.69217772E+01
 20
-1.33807327E+02
 11
-6.51917772E+01
 21
-1.32077327E+02
  0
LINE
  8
0
 62
4
 10
-6.65717772E+01
 20
-1.34157327E+02
 11
-6.49317772E+01
 21
-1.32537327E+02
  0
LINE
  8
0
 62
6
 10
-4.47917772E+01
 20
-1.30937327E+02
 11
-4.22917772E+01
 21
-1.35257327E+02
  0
LINE
  8
0
 62
4
 10
-4.58717772E+01
 20
-1.31797327E+02
 11
-4.42917772E+01
 21
-1.31797327E+02
  0
LINE
  8
0
 62
4
 10
-4.58717772E+01
 20
-1.34397327E+02
 11
-4.27817772E+01
 21
-1.34397327E+02
  0
CIRCLE
  8
0
 62
4
 10
-6.58717619E+01
 20
-1.33097327E+02
 40
1.25000000E+00
  0
CIRCLE
  8
0
 62
4
 10
-6.58717619E+01
 20
-1.33097327E+02
 40
1.39999962E+00
  0
LINE
  8
0
 62
4
 10
8.73032265E+01
 20
-1.79341984E+02
 11
1.03403226E+02
 21
-1.79341984E+02
  0
LINE
  8
0
 62
4
 10
9.20032265E+01
 20
-1.83941984E+02
 11
1.09303226E+02
 21
-1.83941984E+02
  0
LINE
  8
0
 62
4
 10
1.09303226E+02
 20
-1.72441984E+02
 11
1.09303226E+02
 21
-1.83941984E+02
  0
LINE
  8
0
 62
4
 10
8.73032265E+01
 20
-1.81941984E+02
 11
8.73032265E+01
 21
-1.79341984E+02
  0
LINE
  8
0
 62
4
 10
9.20032265E+01
 20
-1.82321984E+02
 11
9.20032265E+01
 21
-1.83941984E+02
  0
LINE
  8
0
  6
CENTER
 62
6
 10
8.93032265E+01
 20
-1.78611984E+02
 11
8.93032265E+01
 21
-1.84511984E+02
  0
LINE
  8
0
 62
4
 10
1.03403226E+02
 20
-1.72441984E+02
 11
1.03403226E+02
 21
-1.79341984E+02
  0
LINE
  8
0
 62
4
 10
8.73032265E+01
 20
-1.81141984E+02
 11
9.15732265E+01
 21
-1.81141984E+02
  0
LINE
  8
0
 62
4
 10
8.73032265E+01
 20
-1.81941984E+02
 11
9.13032265E+01
 21
-1.81941984E+02
  0
LINE
  8
0
 62
4
 10
9.13032265E+01
 20
-1.81141984E+02
 11
9.13032265E+01
 21
-1.81941984E+02
  0
LINE
  8
0
 62
4
 10
1.03403226E+02
 20
-1.72441984E+02
 11
1.09303226E+02
 21
-1.72441984E+02
  0
LINE
  8
0
 62
4
 10
9.15032265E+01
 20
-1.83141984E+02
 11
9.20032265E+01
 21
-1.83141984E+02
  0
LINE
  8
0
 62
4
 10
9.15032265E+01
 20
-1.81141984E+02
 11
9.15032265E+01
 21
-1.83141984E+02
  0
LINE
  8
0
 62
4
 10
9.15732265E+01
 20
-1.82321984E+02
 11
9.20032265E+01
 21
-1.82321984E+02
  0
LINE
  8
0
 62
4
 10
9.15732265E+01
 20
-1.81141984E+02
 11
9.15732265E+01
 21
-1.82321984E+02
  0
LINE
  8
0
 62
4
 10
8.73032265E+01
 20
-1.80341984E+02
 11
1.09303226E+02
 21
-1.80341984E+02
  0
LINE
  8
0
 62
4
 10
8.73032265E+01
 20
-1.79791984E+02
 11
1.09303226E+02
 21
-1.79791984E+02
  0
LINE
  8
0
 62
4
 10
1.03403226E+02
 20
-1.78191984E+02
 11
1.09303226E+02
 21
-1.78191984E+02
  0
LINE
  8
0
 62
4
 10
1.03403226E+02
 20
-1.78941984E+02
 11
1.09303226E+02
 21
-1.78941984E+02
  0
LINE
  8
0
 62
4
 10
1.03403226E+02
 20
-1.73941984E+02
 11
1.09303226E+02
 21
-1.73941984E+02
  0
LINE
  8
0
 62
4
 10
1.05403226E+02
 20
-1.63941984E+02
 11
1.08003226E+02
 21
-1.63941984E+02
  0
LINE
  8
0
  6
CENTER
 62
6
 10
1.06253226E+02
 20
-1.65671984E+02
 11
1.06253226E+02
 21
-1.53741984E+02
  0
LINE
  8
0
  6
CENTER
 62
6
 10
1.07153226E+02
 20
-1.65621984E+02
 11
1.07153226E+02
 21
-1.53691984E+02
  0
LINE
  8
0
 62
4
 10
1.06003226E+02
 20
-1.53941984E+02
 11
1.06503226E+02
 21
-1.53941984E+02
  0
LINE
  8
0
 62
4
 10
1.06903226E+02
 20
-1.53941984E+02
 11
1.07403226E+02
 21
-1.53941984E+02
  0
LINE
  8
0
 62
4
 10
1.05803226E+02
 20
-1.56941984E+02
 11
1.07603226E+02
 21
-1.56941984E+02
  0
LINE
  8
0
 62
4
 10
1.07603226E+02
 20
-1.63941984E+02
 11
1.07603226E+02
 21
-1.59941984E+02
  0
LINE
  8
0
 62
4
 10
1.06703226E+02
 20
-1.63941984E+02
 11
1.06703226E+02
 21
-1.60461984E+02
  0
LINE
  8
0
 62
4
 10
1.06703226E+02
 20
-1.58961984E+02
 11
1.06703226E+02
 21
-1.56941984E+02
  0
LINE
  8
0
 62
4
 10
1.07603226E+02
 20
-1.58441984E+02
 11
1.07603226E+02
 21
-1.56941984E+02
  0
LINE
  8
0
 62
4
 10
1.05803226E+02
 20
-1.63941984E+02
 11
1.05803226E+02
 21
-1.60981984E+02
  0
LINE
  8
0
 62
4
 10
1.05803226E+02
 20
-1.59481984E+02
 11
1.05803226E+02
 21
-1.56941984E+02
  0
LINE
  8
0
 62
4
 10
1.06003226E+02
 20
-1.56941984E+02
 11
1.06003226E+02
 21
-1.53941984E+02
  0
LINE
  8
0
 62
4
 10
1.06503226E+02
 20
-1.56941984E+02
 11
1.06503226E+02
 21
-1.53941984E+02
  0
LINE
  8
0
 62
4
 10
1.06903226E+02
 20
-1.56941984E+02
 11
1.06903226E+02
 21
-1.53941984E+02
  0
LINE
  8
0
 62
4
 10
1.07403226E+02
 20
-1.56941984E+02
 11
1.07403226E+02
 21
-1.53941984E+02
  0
LINE
  8
0
 62
6
 10
1.04543226E+02
 20
-1.60211984E+02
 11
1.08873226E+02
 21
-1.57711984E+02
  0
LINE
  8
0
  6
CENTER
 62
6
 10
1.06703226E+02
 20
-1.73761984E+02
 11
1.06703226E+02
 21
-1.63941984E+02
  0
LINE
  8
0
 62
6
 10
1.04543226E+02
 20
-1.61711984E+02
 11
1.08873226E+02
 21
-1.59211984E+02
  0
LINE
  8
0
 62
6
 10
1.04543226E+02
 20
-1.69191984E+02
 11
1.08873226E+02
 21
-1.66691984E+02
  0
LINE
  8
0
 62
6
 10
1.04543226E+02
 20
-1.70691984E+02
 11
1.08873226E+02
 21
-1.68191984E+02
  0
LINE
  8
0
 62
4
 10
8.82732265E+01
 20
-1.83341984E+02
 11
9.03232265E+01
 21
-1.83341984E+02
  0
LINE
  8
0
 62
4
 10
9.03232265E+01
 20
-1.83341984E+02
 11
9.05532265E+01
 21
-1.83111984E+02
  0
LINE
  8
0
 62
4
 10
8.82732265E+01
 20
-1.83341984E+02
 11
8.80532265E+01
 21
-1.83111984E+02
  0
LINE
  8
0
 62
4
 10
8.80532265E+01
 20
-1.81941984E+02
 11
8.80532265E+01
 21
-1.83111984E+02
  0
LINE
  8
0
 62
6
 10
8.82732265E+01
 20
-1.81941984E+02
 11
8.82732265E+01
 21
-1.83341984E+02
  0
LINE
  8
0
 62
6
 10
9.03232265E+01
 20
-1.81941984E+02
 11
9.03232265E+01
 21
-1.83341984E+02
  0
LINE
  8
0
 62
4
 10
9.05532265E+01
 20
-1.81941984E+02
 11
9.05532265E+01
 21
-1.83111984E+02
  0
LINE
  8
0
 62
4
 10
8.80532265E+01
 20
-1.83111984E+02
 11
9.05532265E+01
 21
-1.83111984E+02
  0
LINE
  8
0
 62
4
 10
8.80532265E+01
 20
-1.78841984E+02
 11
8.80532265E+01
 21
-1.79341984E+02
  0
LINE
  8
0
 62
6
 10
8.82732265E+01
 20
-1.78841984E+02
 11
8.82732265E+01
 21
-1.79341984E+02
  0
LINE
  8
0
 62
6
 10
9.03232265E+01
 20
-1.78841984E+02
 11
9.03232265E+01
 21
-1.79341984E+02
  0
LINE
  8
0
 62
4
 10
9.05532265E+01
 20
-1.78841984E+02
 11
9.05532265E+01
 21
-1.79341984E+02
  0
LINE
  8
0
 62
4
 10
8.80532265E+01
 20
-1.78841984E+02
 11
9.05532265E+01
 21
-1.78841984E+02
  0
LINE
  8
0
 62
4
 10
1.08003226E+02
 20
-1.72441984E+02
 11
1.08003226E+02
 21
-1.68691984E+02
  0
LINE
  8
0
 62
4
 10
1.05403226E+02
 20
-1.72441984E+02
 11
1.05403226E+02
 21
-1.70191984E+02
  0
LINE
  8
0
 62
4
 10
1.05403226E+02
 20
-1.68691984E+02
 11
1.05403226E+02
 21
-1.63941984E+02
  0
LINE
  8
0
 62
4
 10
1.08003226E+02
 20
-1.67191984E+02
 11
1.08003226E+02
 21
-1.63941984E+02
  0
LINE
  8
0
 62
4
 10
4.20104866E+01
 20
-1.73941969E+02
 11
4.65104866E+01
 21
-1.73941969E+02
  0
LINE
  8
0
 62
4
 10
4.20104866E+01
 20
-1.72441969E+02
 11
4.20104866E+01
 21
-1.78191969E+02
  0
LINE
  8
0
 62
4
 10
4.27604866E+01
 20
-1.78941969E+02
 11
4.20104866E+01
 21
-1.78191969E+02
  0
LINE
  8
0
 62
4
 10
4.27604866E+01
 20
-1.79791969E+02
 11
4.27604866E+01
 21
-1.78941969E+02
  0
LINE
  8
0
 62
4
 10
4.22104866E+01
 20
-1.80341969E+02
 11
4.27604866E+01
 21
-1.79791969E+02
  0
LINE
  8
0
 62
4
 10
4.22104866E+01
 20
-1.80341969E+02
 11
4.22104866E+01
 21
-1.81891969E+02
  0
LINE
  8
0
 62
4
 10
4.63104866E+01
 20
-1.80341969E+02
 11
4.63104866E+01
 21
-1.81891969E+02
  0
LINE
  8
0
 62
4
 10
4.63104866E+01
 20
-1.80341969E+02
 11
4.57604866E+01
 21
-1.79791969E+02
  0
LINE
  8
0
 62
4
 10
4.57604866E+01
 20
-1.79791969E+02
 11
4.57604866E+01
 21
-1.78941969E+02
  0
LINE
  8
0
 62
4
 10
4.57604866E+01
 20
-1.78941969E+02
 11
4.65104866E+01
 21
-1.78191969E+02
  0
LINE
  8
0
 62
4
 10
4.65104866E+01
 20
-1.72441969E+02
 11
4.65104866E+01
 21
-1.78191969E+02
  0
LINE
  8
0
  6
CENTER
 62
6
 10
4.42604866E+01
 20
-1.66781969E+02
 11
4.42604866E+01
 21
-1.85401969E+02
  0
LINE
  8
0
 62
4
 10
4.27604866E+01
 20
-1.79341969E+02
 11
4.57604866E+01
 21
-1.79341969E+02
  0
LINE
  8
0
 62
4
 10
4.22104866E+01
 20
-1.81141969E+02
 11
4.63104866E+01
 21
-1.81141969E+02
  0
LINE
  8
0
 62
4
 10
4.22104866E+01
 20
-1.81941969E+02
 11
4.63104866E+01
 21
-1.81941969E+02
  0
LINE
  8
0
 62
4
 10
4.20104866E+01
 20
-1.72441969E+02
 11
4.65104866E+01
 21
-1.72441969E+02
  0
LINE
  8
0
 62
6
 10
4.21004866E+01
 20
-1.70691969E+02
 11
4.64204866E+01
 21
-1.68191969E+02
  0
LINE
  8
0
 62
4
 10
4.32404866E+01
 20
-1.83341969E+02
 11
4.52804866E+01
 21
-1.83341969E+02
  0
LINE
  8
0
 62
4
 10
4.52804866E+01
 20
-1.83341969E+02
 11
4.55104866E+01
 21
-1.83111969E+02
  0
LINE
  8
0
 62
4
 10
4.32404866E+01
 20
-1.83341969E+02
 11
4.30104866E+01
 21
-1.83111969E+02
  0
LINE
  8
0
 62
4
 10
4.30104866E+01
 20
-1.81941969E+02
 11
4.30104866E+01
 21
-1.83111969E+02
  0
LINE
  8
0
 62
6
 10
4.32404866E+01
 20
-1.81941969E+02
 11
4.32404866E+01
 21
-1.83341969E+02
  0
LINE
  8
0
 62
6
 10
4.52804866E+01
 20
-1.81941969E+02
 11
4.52804866E+01
 21
-1.83341969E+02
  0
LINE
  8
0
 62
4
 10
4.55104866E+01
 20
-1.81941969E+02
 11
4.55104866E+01
 21
-1.83111969E+02
  0
LINE
  8
0
 62
4
 10
4.30104866E+01
 20
-1.83111969E+02
 11
4.55104866E+01
 21
-1.83111969E+02
  0
LINE
  8
0
 62
4
 10
4.30104866E+01
 20
-1.78841969E+02
 11
4.30104866E+01
 21
-1.79341969E+02
  0
LINE
  8
0
 62
6
 10
4.32404866E+01
 20
-1.78841969E+02
 11
4.32404866E+01
 21
-1.79341969E+02
  0
LINE
  8
0
 62
6
 10
4.52804866E+01
 20
-1.78841969E+02
 11
4.52804866E+01
 21
-1.79341969E+02
  0
LINE
  8
0
 62
4
 10
4.55104866E+01
 20
-1.78841969E+02
 11
4.55104866E+01
 21
-1.79341969E+02
  0
LINE
  8
0
 62
4
 10
4.30104866E+01
 20
-1.78841969E+02
 11
4.55104866E+01
 21
-1.78841969E+02
  0
LINE
  8
0
 62
4
 10
4.29604866E+01
 20
-1.70191969E+02
 11
4.29604866E+01
 21
-1.72441969E+02
  0
LINE
  8
0
 62
4
 10
4.55604866E+01
 20
-1.68691969E+02
 11
4.55604866E+01
 21
-1.72441969E+02
  0
ARC
  8
0
 62
4
 10
4.42604889E+01
 20
-1.81891967E+02
 40
2.05000229E+00
 50
1.80000064E+02
 51
2.69999936E+02
  0
ARC
  8
0
 62
4
 10
4.42652941E+01
 20
-1.81887073E+02
 40
2.04519835E+00
 50
2.70985958E+02
 51
3.59862852E+02
  0
LINE
  8
0
  6
CENTER
 62
6
 10
8.59831960E+01
 20
-1.31741963E+02
 11
1.10883196E+02
 21
-1.31741963E+02
  0
LINE
  8
0
 62
4
 10
8.73031960E+01
 20
-1.33241963E+02
 11
1.03863196E+02
 21
-1.33241963E+02
  0
LINE
  8
0
 62
4
 10
8.73031960E+01
 20
-1.30241963E+02
 11
1.03863196E+02
 21
-1.30241963E+02
  0
LINE
  8
0
 62
4
 10
8.73031960E+01
 20
-1.33791963E+02
 11
1.04213196E+02
 21
-1.33791963E+02
  0
LINE
  8
0
 62
4
 10
8.73031960E+01
 20
-1.29691963E+02
 11
1.04213196E+02
 21
-1.29691963E+02
  0
LINE
  8
0
 62
4
 10
8.73031960E+01
 20
-1.29691963E+02
 11
8.73031960E+01
 21
-1.33791963E+02
  0
LINE
  8
0
  6
CENTER
 62
6
 10
8.93031960E+01
 20
-1.28911963E+02
 11
8.93031960E+01
 21
-1.34491963E+02
  0
LINE
  8
0
 62
4
 10
1.04383196E+02
 20
-1.29491963E+02
 11
1.09303196E+02
 21
-1.29491963E+02
  0
LINE
  8
0
 62
4
 10
1.04383196E+02
 20
-1.33991963E+02
 11
1.09303196E+02
 21
-1.33991963E+02
  0
LINE
  8
0
 62
4
 10
1.09303196E+02
 20
-1.29491963E+02
 11
1.09303196E+02
 21
-1.33991963E+02
  0
LINE
  8
0
 62
4
 10
8.86531960E+01
 20
-1.32811963E+02
 11
9.03731960E+01
 21
-1.31101963E+02
  0
LINE
  8
0
 62
4
 10
8.82331960E+01
 20
-1.32381963E+02
 11
8.99431960E+01
 21
-1.30671963E+02
  0
ARC
  8
0
 62
4
 10
1.06803196E+02
 20
-1.31741963E+02
 40
3.30437589E+00
 50
1.37084793E+02
 51
2.22915207E+02
  0
CIRCLE
  8
0
 62
4
 10
8.93031960E+01
 20
-1.31741963E+02
 40
1.25000000E+00
  0
CIRCLE
  8
0
 62
4
 10
8.93031960E+01
 20
-1.31741963E+02
 40
1.39999962E+00
  0
CIRCLE
  8
0
 62
4
 10
1.06710545E+02
 20
-1.31741963E+02
 40
1.29999924E+00
  0
CIRCLE
  8
0
 62
4
 10
1.07032352E+02
 20
-1.32082966E+02
 40
4.49999988E-01
  0
CIRCLE
  8
0
 62
4
 10
1.06420475E+02
 20
-1.31423809E+02
 40
4.49999988E-01
  0
CIRCLE
  8
0
 62
4
 10
1.07032352E+02
 20
-1.32082966E+02
 40
2.50000000E-01
  0
CIRCLE
  8
0
 62
4
 10
1.06420475E+02
 20
-1.31423809E+02
 40
2.50000000E-01
  0
TEXT
  8
0
 10
1.52662115E+02
 20
1.41533168E+02
 40
4.50000000E+00
  1
STRETCH LINE
 41
1.05263158E+00
  7
MONOTXT
  0
TEXT
  8
0
 10
-1.31509828E+02
 20
1.41533168E+02
 40
4.50000000E+00
  1
STRETCH LINE
 41
1.05263158E+00
  7
MONOTXT
  0
TEXT
  8
0
 62
7
 10
-2.58150288E+02
 20
1.82350000E+02
 40
6.30000019E+00
  1
MULTI SLIDER
 41
1.05263174E+00
  7
MONOTXT
  0
TEXT
  8
0
 62
7
 10
1.69885276E+02
 20
-1.89500000E+02
 40
9.00000000E+00
  1
KOGANEI CORP.
 41
1.04838732E+00
  7
MONOTXT
  0
TEXT
  8
0
 62
7
 10
1.97799690E+02
 20
1.82350000E+02
 40
6.30000019E+00
  1
Ver. 1.0
 41
1.08108124E+00
  7
MONOTXT
  0
LINE
  8
0
 62
7
 10
-1.61250000E+02
 20
1.95500000E+02
 11
-1.61250000E+02
 21
1.75500000E+02
  0
LINE
  8
0
 62
7
 10
1.62099976E+02
 20
1.95500000E+02
 11
1.62099976E+02
 21
1.75500000E+02
  0
LINE
  8
0
 62
7
 10
-2.81250000E+02
 20
1.75500000E+02
 11
-1.61250000E+02
 21
1.75500000E+02
  0
LINE
  8
0
 62
7
 10
1.62099976E+02
 20
1.75500000E+02
 11
2.82099854E+02
 21
1.75500000E+02
  0
LINE
  8
0
 62
7
 10
1.62099976E+02
 20
-1.75000000E+02
 11
2.82099854E+02
 21
-1.75000000E+02
  0
LINE
  8
0
 62
7
 10
1.62099976E+02
 20
-1.75000000E+02
 11
1.62099976E+02
 21
-1.95000000E+02
  0
LINE
  8
0
 62
7
 10
-2.81250000E+02
 20
-1.95000000E+02
 11
2.82099854E+02
 21
-1.95000000E+02
  0
LINE
  8
0
 62
7
 10
-2.81250000E+02
 20
1.95500000E+02
 11
-2.81250000E+02
 21
-1.95000000E+02
  0
LINE
  8
0
 62
7
 10
-2.81250000E+02
 20
1.95500000E+02
 11
2.82099854E+02
 21
1.95500000E+02
  0
LINE
  8
0
 62
7
 10
2.82099854E+02
 20
1.95500000E+02
 11
2.82099854E+02
 21
-1.95000000E+02
  0
LINE
  8
0
 62
7
 10
-2.81250000E+02
 20
-1.00000000E+02
 11
2.82099854E+02
 21
-1.00000000E+02
  0
TEXT
  8
0
 62
7
 10
-2.67600562E+02
 20
1.57350000E+02
 40
6.30000019E+00
  1
MODEL:MS10*30
 41
1.00000015E+00
  7
MONOTXT
  0
TEXT
  8
0
 62
7
 10
-9.67578125E+01
 20
-7.57169733E+01
 40
4.50000000E+00
  1
(mm)
 41
1.00000000E+00
  7
MONOTXT
  0
TEXT
  8
0
 62
7
 10
-2.03757812E+02
 20
-7.66553618E+01
 40
4.50000000E+00
  1
STRETCH LIST
 41
1.05263158E+00
  7
MONOTXT
  0
LINE
  8
0
 62
7
 10
-2.76250000E+02
 20
-9.50000000E+01
 11
-7.82500000E+01
 21
-9.50000000E+01
  0
LINE
  8
0
 62
7
 10
-2.76250000E+02
 20
-8.70000000E+01
 11
-7.82500000E+01
 21
-8.70000000E+01
  0
LINE
  8
0
 62
7
 10
-2.76250000E+02
 20
-7.90000000E+01
 11
-7.82500000E+01
 21
-7.90000000E+01
  0
LINE
  8
0
 62
7
 10
-2.76250000E+02
 20
-9.50000000E+01
 11
-2.76250000E+02
 21
-7.90000000E+01
  0
LINE
  8
0
 62
7
 10
-2.40250000E+02
 20
-9.50000000E+01
 11
-2.40250000E+02
 21
-7.90000000E+01
  0
LINE
  8
0
 62
7
 10
-2.13250000E+02
 20
-9.50000000E+01
 11
-2.13250000E+02
 21
-7.90000000E+01
  0
LINE
  8
0
 62
7
 10
-1.86250000E+02
 20
-9.50000000E+01
 11
-1.86250000E+02
 21
-7.90000000E+01
  0
LINE
  8
0
 62
7
 10
-1.59250000E+02
 20
-9.50000000E+01
 11
-1.59250000E+02
 21
-7.90000000E+01
  0
LINE
  8
0
 62
7
 10
-1.32250000E+02
 20
-9.50000000E+01
 11
-1.32250000E+02
 21
-7.90000000E+01
  0
LINE
  8
0
 62
7
 10
-1.05250000E+02
 20
-9.50000000E+01
 11
-1.05250000E+02
 21
-7.90000000E+01
  0
LINE
  8
0
 62
7
 10
-7.82500000E+01
 20
-9.50000000E+01
 11
-7.82500000E+01
 21
-7.90000000E+01
  0
TEXT
  8
0
 62
7
 10
-2.71257812E+02
 20
-8.52500000E+01
 40
4.50000000E+00
  1
STROKE
 41
1.00000000E+00
  7
MONOTXT
  0
TEXT
  8
0
 62
7
 10
-2.03757812E+02
 20
-8.52500000E+01
 40
4.50000000E+00
  1
20
 41
1.00000000E+00
  7
MONOTXT
  0
TEXT
  8
0
 62
7
 10
-1.76757812E+02
 20
-8.52500000E+01
 40
4.50000000E+00
  1
30
 41
1.00000000E+00
  7
MONOTXT
  0
TEXT
  8
0
 62
7
 10
-2.73507812E+02
 20
-9.32500000E+01
 40
4.50000000E+00
  1
STRETCH
 41
1.00000000E+00
  7
MONOTXT
  0
TEXT
  8
0
 62
7
 10
-1.49757812E+02
 20
-8.52500000E+01
 40
4.50000000E+00
  1
40
 41
1.00000000E+00
  7
MONOTXT
  0
TEXT
  8
0
 62
7
 10
-1.22757812E+02
 20
-8.52500000E+01
 40
4.50000000E+00
  1
50
 41
1.00000000E+00
  7
MONOTXT
  0
TEXT
  8
0
 62
7
 10
-2.71257812E+02
 20
-8.52500000E+01
 40
4.50000000E+00
  1
STROKE
 41
1.00000000E+00
  7
MONOTXT
  0
TEXT
  8
0
 62
7
 10
-2.30757812E+02
 20
-8.52500000E+01
 40
4.50000000E+00
  1
10
 41
1.00000000E+00
  7
MONOTXT
  0
TEXT
  8
0
 62
7
 10
-2.33007812E+02
 20
-9.32500000E+01
 40
4.50000000E+00
  1
-20
 41
1.00000000E+00
  7
MONOTXT
  0
TEXT
  8
0
 62
7
 10
-2.73507812E+02
 20
-9.32500000E+01
 40
4.50000000E+00
  1
STRETCH
 41
1.00000000E+00
  7
MONOTXT
  0
TEXT
  8
0
 62
7
 10
-9.57578125E+01
 20
-8.52500000E+01
 40
4.50000000E+00
  1
60
 41
1.00000000E+00
  7
MONOTXT
  0
TEXT
  8
0
 62
7
 10
-2.06007812E+02
 20
-9.32500000E+01
 40
4.50000000E+00
  1
-10
 41
1.00000000E+00
  7
MONOTXT
  0
TEXT
  8
0
 62
7
 10
-1.74507812E+02
 20
-9.32500000E+01
 40
4.50000000E+00
  1
0
 41
1.00000000E+00
  7
MONOTXT
  0
TEXT
  8
0
 62
7
 10
-1.49757812E+02
 20
-9.32500000E+01
 40
4.50000000E+00
  1
10
 41
1.00000000E+00
  7
MONOTXT
  0
TEXT
  8
0
 62
7
 10
-1.22757812E+02
 20
-9.32500000E+01
 40
4.50000000E+00
  1
20
 41
1.00000000E+00
  7
MONOTXT
  0
TEXT
  8
0
 62
7
 10
-9.57578125E+01
 20
-9.32500000E+01
 40
4.50000000E+00
  1
30
 41
1.00000000E+00
  7
MONOTXT
  0
TEXT
  8
0
 62
7
 10
1.40743646E+01
 20
1.57350000E+02
 40
6.30000019E+00
  1
MODEL:MS10*30-L
 41
1.00000015E+00
  7
MONOTXT
  0
TEXT
  8
0
 62
7
 10
-5.39760595E-01
 20
-1.07250000E+02
 40
4.50000000E+00
  1
MODEL:ZE235,255,202,201
 41
1.00000000E+00
  7
MONOTXT
  0
TEXT
  8
0
 62
7
 10
-1.57214688E+02
 20
-1.07250000E+02
 40
4.50000000E+00
  1
MODEL:ZE135,155,102,101
 41
1.00000000E+00
  7
MONOTXT
  0
ENDSEC
  0
EOF
